» » »

Zack Hexum, Only A Rehearsal Tabs (ver.1)

Artists:  A B C D E F G H I J K L M N O P Q R S T U V W X Y Z # 

Only A Rehearsal Tabs (ver.1)

Zack Hexum Tabs
 Rating:
4/5 (4 votes)
Only A Rehearsal lessons Tabs too difficult? Try these video lessons and learn fast
                xxxxxxxxxxxxxxxxxxxxxxxxxxxxxxxxxxxxxxxxxxxxxxxxxxxxxxxxxxxxxxxxxxxxxxxxxxxxxxxxxxxxxxxxxxxxxxxxxx
                                   O n l y   A   R e h e a r s a l
                               O p e n   T o   C l o s e   ( 2 0 0 7 )
                                         Z A C K   H E X U M
xxxxxxxxxxxxxxxxxxxxxxxxxxxxxxxxxxxxxxxxxxxxxxxxxxxxxxxxxxxxxxxxxxxxxxxxxxxxxxxxxxxxxxxxxxxxxxxxxx


                   + This file is the work of Jordan Lapping and represents his    +
                   + transcription of the song. You may only use this file for     +
                   + private study, scholarship, or research. The contents may not +
                   + permission. Thank you for understanding. Enjoy.               +
                   +---------------------------------------------------------------+



Tuning: E (Standard)


 CHORDS USED:
     A    B   C#m   E    G#  G#m
D]---5----7----4----0----4----4---|
B]---5----7----5----0----4----4---|
G]---6----8----6----1----5----4---|
D]---7----9----6----2----6----6---|
G]---7----9----4----2----6----6---|
D]---5----7---------0----4----4---|



 INTRO (notes in brackets are optional):
    A5            A   F#5         E5    A                 A5    B5
e]---(2)-(4)-----------(2)-(4)-----------(2)-(4)-----------(4)-(2)-|
B]-----------------------------------------------------------------|
G]-----------------------------------------------------------------|
D]----------------------------------2-----------------2------------|
A]--0-----------0-4---------------2-----4-----------4-----0-----2--|
E]--------------------2--------------------------------------------|



 VERSE 1:
    A5            A   F#5         E5    A                 A5    B5
e]-------------------------------------------------------------------------|
B]-------------------------------------------------------------------------|
G]--2-2-2-2-2-2-2-2---------------------2-2-2-2-2-2-------2-2-2-4-4-4-4-4--|
D]--2-2-2-2-2-2-2-2---4-4-4-4-4-4---2---2-2-2-2-2-2---2---2-2-2-4-4-4-4-4--|
A]--0-0-0-0-0-0-0-4---4-4-4-4-4-4-2-----4-4-4-4-4-4-4-----0-0-0-2-2-2-2-2--|
E]--------------------2-2-2-2-2-2------------------------------------------|

    A5            A   F#5         E5    A                 A5     B5
e]------------------------------------------------------------------|
B]------------------------------------------------------------------|
G]--2-2-2-2-2-2-2-2---------------------2-2-2-2-2-2-------2-2-2--4--|
D]--2-2-2-2-2-2-2-2---4-4-4-4-4-4---2---2-2-2-2-2-2---2---2-2-2--4--|
A]--0-0-0-0-0-0-0-4---4-4-4-4-4-4-2-----4-4-4-4-4-4-4-----0-0-0--2--|
E]--------------------2-2-2-2-2-2-----------------------------------|

A5           A  F#5           E5    A
  Lonely coffee cup, where's your friend?
              A5            B5
  Where's your, how's your sugar?
A5          A  F#5      E5   A               A5    B5
  I'm the only one that is staring at your shape



 PRE-CHORUS 1:
E - G#m - A - B - C#m - G# - A - B

    E                   G#m     A        B         C#m                 G#      A        B
e]----------------------------------------------|----------------------------------------------|
B]----------------------------------------------|----------------------------------------------|
G]----9-11-13b14b13-11-----8-------9--------10--|--------9-11/13-11-9-----8-------9------------|
D]--9------------------------9-------11---------|-----10--------------------10/11---11--13-----|
A]----------------------11------12-------14-----|--10------------------11------------------14--|
E]----------------------------------------------|----------------------------------------------|



 CHORUS 1:
E                  G#m  A  B
  This is only a rehearsal
C#m                          G#      A   B   E
  This black spot is just a test of who you are
                   G#m  A  B
  This is only a rehearsal
C#m                         G#         A
  You could come back as a roach or a butterfly



 TRANSITION 1:
    Dmaj7  C#m7   F#add4
e]----------------0--|
B]----------------0--|
G]----6------4----3--|
D]------4------2--4--|
A]--5------4------4--|
E]-------------------|



 VERSE 2:
    A5            A   F#5         E5    A                 A5    B5
e]-------------------------------------------------------------------------|
B]-------------------------------------------------------------------------|
G]--2-2-2-2-2-2-2-2---------------------2-2-2-2-2-2-------2-2-2-4-4-4-4-4--|
D]--2-2-2-2-2-2-2-2---4-4-4-4-4-4---2---2-2-2-2-2-2---2---2-2-2-4-4-4-4-4--| (x2)
A]--0-0-0-0-0-0-0-4---4-4-4-4-4-4-2-----4-4-4-4-4-4-4-----0-0-0-2-2-2-2-2--|
E]--------------------2-2-2-2-2-2------------------------------------------|

A5          A  F#5    E5        A
  Stupid sugar drop, hide your face
           A5           B5                A5
  There is no one that wants to hear you sing
               A  F#5    E5        A                A5    B5
  Who's this only one that would stay to hear your song?



 PRE-CHORUS 2:
E - G#m - A - B - C#m - G# - A - B

    E                   G#m     A        B         C#m                 G#      A        B
e]----------------------------------------------|----------------------------------------------|
B]----------------------------------------------|----------------------------------------------|
G]----9-11-13b14b13-11-----8-------9--------10--|--------9-11/13-11-9-----8-------9------------|
D]--9------------------------9-------11---------|-----10--------------------10/11---11--13-----|
A]----------------------11------12-------14-----|--10------------------11------------------14--|
E]----------------------------------------------|----------------------------------------------|



 CHORUS 2:
E                  G#m  A  B
  This is only a rehearsal
C#m                          G#      A   B   E
  This black spot is just a test of who you are
                   G#m  A  B
  This is only a rehearsal
C#m                         G#             A
  You could come back as a cockroach or a butterfly



 INTERLUDE/BRIDGE [A]:
    Dmaj7  C#m7     F#          Dmaj7  E      Bm
e]----------------------------|---------------------------|
B]----------------------------|---------------------------|
G]----6------4------3-----3---|---6------9------7----7----|
D]------4------2------4-----4-|-----4------9------9----9--|
A]--5------4------4-----4-----|-5------7------9-----9-----|
E]----------------------------|---------------------------|

    Dmaj7  C#m7     F#m         Dmaj7  E
e]----------------------------|----------------------------|
B]----------------------------|----------------------------|
G]----6------4------2-----2---|---6------9--------9-9------|
D]------4------2------4-----4-|-----4------9----9-----9----|
A]--5------4------4-----4-----|-5------7------7---------7--|
E]----------------------------|----------------------------|



 INTERLUDE/BRIDGE [B]:
Dmaj7 C#m7  F#
  I   need you
    Dmaj7 E  Bm
  I came unglued
       Dmaj7 C#m7 F#m
  This pale light red
          Dmaj7  E
  Falls on me  instead



 OUTRO:
    Dmaj7  C#m7   F#       Dmaj7  E      Bm   Dmaj7  C#m7   F#m       Dmaj7  E
e]-----------------------|-----------------|-----------------------|-------------------|
B]-----------------------|-----------------|-----------------------|----------------9--|
G]--6h7p6--4h6p4--3------|-6h7p6--9h11p9---|--6h7p6--4h6p4--2------|--6h7p6--9h11p9----|
D]-------------------4---|---------------9-|-------------------4---|-------------------| (x2)
A]---------------------4-|-----------------|---------------------4-|-------------------|
E]-----------------------|-----------------|-----------------------|-------------------|

e]------------------|------------------|
B]------------------|------------------|
G]--6h7p6--4h6p4--3-|-6h7p6--4h6p4--3--|
D]------------------|------------------|
A]------------------|------------------|
E]------------------|------------------|




xxxxxxxxxxxxxxxxxxxxxxxxxxxxxxxxxxxxxxxxxxxxxxxxxxxxxxxxxxxxxxxxxxxxxxxxxxxxxxxxxxxxxxxxxxxxxxxxxx

xxxxxxxxxxxxxxxxxxxxxxxxxxxxxxxxxxxxxxxxxxxxxxxxxxxxxxxxxxxxxxxxxxxxxxxxxxxxxxxxxxxxxxxxxxxxxxxxxx
            
Submit corrections

comments powered by Disqus
↑ Back to top | Zack Hexum Tabs for Only A Rehearsal. Lyrics for acoustic guitar and electric guitar. Tablatures and chords are parodies/interpretations of the original songs. You may use it for private study, scholarship, research or language learning purposes only