>
 >
Little City Driver

Little City Driver Guitar Tabs

Zack Hexum - Little City Driver chords, tabs, tablatures, lyrics

Guitar lessons | Add/correct | Request | Top 50 tabs Artists:  A B C D E F G H I J K L M N O P Q R S T U V W X Y Z 0-9

Little City Driver Guitar Tabs – Zack Hexum

CD, Sheet music, Poster

Do you like Little City Driver? Share with your friends now
Tabs
xxxxxxxxxxxxxxxxxxxxxxxxxxxxxxxxxxxxxxxxxxxxxxxxxxxxxxxxxxxxxxxxxxxxxxxxxxxxxxxxxxxxxxxxxxxxxxxxx
                                 L i t t l e   C i t y   D r i v e r
                                          3 H r s   T o u r
                                         Z A C K   H E X U M
xxxxxxxxxxxxxxxxxxxxxxxxxxxxxxxxxxxxxxxxxxxxxxxxxxxxxxxxxxxxxxxxxxxxxxxxxxxxxxxxxxxxxxxxxxxxxxxxx


                   + This file is the work of Jordan Lapping and represents his    +
                   + transcription of the song. You may only use this file for     +
                   + private study, scholarship, or research. The contents may not +
                   + permission. Thank you for understanding. Enjoy.               +
                   +---------------------------------------------------------------+



Tuning: E (Standard)


 CHORDS USED [relative to Capo]:
     Am  Am7 Bm11   C   C/G  Cb5   D    E    F    F5   G
e]---0----0----0----0----0----x----x----0----1----x----3---|
B]---1----1----0----1----1----x----3----0----1----x----0---|
G]---2----0----2----0----0----5----2----1----2----5----0---|
D]---2----2----0----2----2----4----0----2----3----3----0---|
A]---0----0----2----3----3----3----0----2----3----3----2---|
E]--------3----0---------3---------2----0----1---------3---|



 INTRO:
    C         Cb5       Fmaj7                        D13no5          G
e]------3---------2-------0------0----|        e]------------------|--------------|
B]----5---5-----5---5---6-----6-------|        B]----------0-------|--------------|
G]--5---------5-------------5------5--|        G]--------5---5-----|--------------|
D]------------------------------------| (x3)   D]--5---4-------4---|--------------|
A]------------------------------------|        A]----5-----------5-|-------0-2-3--|
E]------------------------------------|        E]------------------|-3~--3--------|



 VERSE 1:
    C                 Am                D               G
e]----------------------------------------------------|--------------|
B]--------3p1---------------3p1---------------3-------|--------------|
G]------0-----0---0-------2-----2---2-------2---2---2-|--------------|
D]----2---------2-------2---------2-------0-------0---|--------------|
A]--3-----------------0-------------------------------|-------0-2-3--|
E]--------------------------------------2-------------|-3~--3--------|

    C                 Am                F  Bm11 E   Am Am7  F   G   C                G
e]--------------------------------------1---0---0---0---0---1---3-------------------|------------|
B]--------3p1---------------3p1---------1---0---0---1---1---1---0---------3p1-------|------------|
G]------0-----0---0-------2-----2---2---2---2---1---2---0---2---0-------0-----0---0-|------------|
D]----2---------2-------2---------2-----3---0---2---2---2---3---0-----2---------2---|------------|
A]--3-----------------0-----------------3---2---2---0---0---3---2---3---------------|-------0-2--|
E]--------------------------------------1---0---0-------3---1---3-------------------|-3~--3------|

C          Am           D
  She rides on empty streets
C               Am
  Always takes cottage grove
               F                            Bm11     E 
  Because she needs the taste of where they used to eat
Am     Am7         F        G     C     G
  She feels these days are long ago



 CHORUS 1:
C5     Cb5    F5             C5
  This taxi smells like gasoline
      Cb5       F5              Am
  And I've seen all there is to see
     Am7         F
  In this town
                   G                      (C)
  Every road goes somewhere but I'm still here



 TRANSITION 1:
    C         Cb5       Fmaj7
e]------3---------2-------0------0----|
B]----5---5-----5---5---6-----6-------|
G]--5---------5-------------5------5--|
D]------------------------------------| (x2)
A]------------------------------------|
E]------------------------------------|



 VERSE 2:
    C                 Am                D               G
e]----------------------------------------------------|--------------|
B]--------3p1---------------3p1---------------3-------|--------------|
G]------0-----0---0-------2-----2---2-------2---2---2-|--------------|
D]----2---------2-------2---------2-------0-------0---|--------------|
A]--3-----------------0-------------------------------|-------0-2-3--|
E]--------------------------------------2-------------|-3~--3--------|

    C                 Am                F  Bm11 E   Am    Am7   F     G     C          G
e]--------------------------------------1---0---0---0000--0000--1111--3333--00000000-|-----------|
B]--------3p1---------------3p1---------1---0---0---1111--1111--1111--0000--00000000-|-----------|
G]------0-----0---0-------2-----2---2---2---2---1---2222--0000--2222--0000--00000000-|-----------|
D]----2---------2-------2---------2-----3---0---2---2222--2222--3333--0000--22222222-|-----------|
A]--3-----------------0-----------------3---2---2---0000--0000--3333--2222--33333333-|-------0-2-|
E]--------------------------------------1---0---0---------3333--1111--3333-----------|-3~--3-----|

C                Am                   D
  She wants her son to have a better view
C                    Am
  His guitar is his pillow at night
                 F                      Bm11     E 
  You know, he plays the parts until he gets it right
Am     Am7       F       G         C
  She hopes the harmony makes him move
      G                   (C5)
 (So he's not stuck here, too)



 CHORUS 2:
C5     Cb5    F5             C5
  This taxi smells like gasoline
      Cb5       F5              Am
  And I've seen all there is to see
     Am7         F
  In this town
                   G                       E
  Every road goes somewhere but I'm still here



 BRIDGE 1:
                           Am
  And there must've been a two-way street
                          E
  I might have turned at differently
                       Am                        E
  These lights never change when you're in the wrong lane
                         Am
  And if you turn, turn into me
                           F            G           (C)
  I'll never forgive this little city driving me mundane



 TRANSITION 2:
    C         Cb5       Fmaj7
e]------3---------2-------0------0----|
B]----5---5-----5---5---6-----6-------|
G]--5---------5-------------5------5--|
D]------------------------------------| (x2)
A]------------------------------------|
E]------------------------------------|



 CHORUS 3:
C      Cb5    F5             C5
  This taxi smells like gasoline
      Cb5       F5              Am
  And I've seen all there is to see
     Am7         F
  In this town
Am   Am7         F
  In this town
                   G                      (C)
  Every road goes somewhere but I'm still here



 OUTRO:
    C         Cb5       Fmaj7                      C         Cb5       Fmaj7         C/G
e]------3---------2-------0------0----|        e]------3---------2-------0------0-----0--|
B]----5---5-----5---5---6-----6-------|        B]----5---5-----5---5---6-----6--------1--|
G]--5---------5-------------5------5--|        G]--5---------5-------------5------5---0--|
D]------------------------------------| (x2)   D]-------------------------------------2--|
A]------------------------------------|        A]-------------------------------------3--|
E]------------------------------------|        E]-------------------------------------3--|





xxxxxxxxxxxxxxxxxxxxxxxxxxxxxxxxxxxxxxxxxxxxxxxxxxxxxxxxxxxxxxxxxxxxxxxxxxxxxxxxxxxxxxxxxxxxxxxxx

xxxxxxxxxxxxxxxxxxxxxxxxxxxxxxxxxxxxxxxxxxxxxxxxxxxxxxxxxxxxxxxxxxxxxxxxxxxxxxxxxxxxxxxxxxxxxxxxx





Comments


Popular Zack Hexum tabs & chords
Guiding Star Save The Date Chords
Never Happens Chords
One Spin Chords
Sun Still Shines Chords
Only A Rehearsal Tabs
Met A Girl Like You Once Ukulele
One Spin Ukulele
Rushing Back Ukulele
Treat Me Bad Ukulele
What If I Ukulele


Song lyrics



↑ Back to top | Tablatures and chords are parodies/interpretations of the original songs. You may use it for private study, scholarship, research or language learning purposes only
© 2014 AZChords.com Contact us | Privacy policy | DMCA | Add/correct tabs | Request tabs | Top 50 tabs