>
 >
Guiding Star Save The Date

Guiding Star Save The Date Chords

Zack Hexum - Guiding Star Save The Date chords, tabs, tablatures, lyrics

Guitar lessons | Add/correct | Request | Top 50 tabs Artists:  A B C D E F G H I J K L M N O P Q R S T U V W X Y Z 0-9

Guiding Star Save The Date Chords – Zack Hexum

CD, Sheet music, Poster

Do you like Guiding Star Save The Date? Share with your friends now
ChordsUkulele
xxxxxxxxxxxxxxxxxxxxxxxxxxxxxxxxxxxxxxxxxxxxxxxxxxxxxxxxxxxxxxxxxxxxxxxxxxxxxxxxxxxxxxxxxxxxxxxxx
                                       G u i d i n g   S t a r
                                                B y
                                         Z A C K   H E X U M
xxxxxxxxxxxxxxxxxxxxxxxxxxxxxxxxxxxxxxxxxxxxxxxxxxxxxxxxxxxxxxxxxxxxxxxxxxxxxxxxxxxxxxxxxxxxxxxxx


                   + This file is the work of Jordan Lapping and represents his    +
                   + transcription of the song. You may only use this file for     +
                   + private study, scholarship, or research. The contents may not +
                   + permission. Thank you for understanding. Enjoy.               +
                   +---------------------------------------------------------------+



Tuning: E (Standard)


 CHORDS USED [in order of appearance]:
     E    G#m7  C#m    A    F#7  Bsus4   B    G    B7
e]---0----(4)----4-----0-----2-----0-----x----3----2---|
B]---0-----4-----5-----2-----2-----0-----4----3----0---|
G]---1-----4-----6-----2-----3-----4-----4----4----2---|
D]---2-----4-----6-----2-----2-----4-----4----5----1---|
A]---2-----x-----4-----0-----4-----2-----2----5----2---|
E]---0-----4-----------------2----------------3--------|



 INTRO:
| E / / / / / / / | G#m7 / / / / / / / | C#m / / / / / / / | A / E F#7 / / / / |



 VERSE 1

  [ZACK]:
E
  These days nothing comes easily
G#m7
  I sprint just to come in last place
C#m                              A   E   F#7
  Fall back, there's nowhere to re-treat to

  {NIKI]:
E
  Take two, I can't get it right still
G#m7
  I pour, but the cup will not fill
C#m                                            A   E   F#7
  Tough luck, 'cause there is no much harm in pay-ing dues



 CHORUS 1:
  E                 Bsus4            B           C#m
  I forget what I'm here for, can't walk out my front door
           G         A       (E)
  Without you as my guiding star
  E                 Bsus4            B           C#m
  I forget what I'm here for, can't walk out my front door
           G         A        E
  Without you as my guiding star



 VERSE 2

  [ZACK]:
E
  I wish there was no work today
G#m7
  Just this, let's make a holiday
C#m                                 A     E   F#7
  Right now when we are apart, the sky's not blue

  {NIKI]:
E
  So bright, the future that we see
G#m7
  Sleep tight, tomorrow we'll be free
C#m                                 A   E   F#7
  One step closer to the dream, I prom-ise you



 CHORUS 2:
  E                 Bsus4            B           C#m
  I forget what I'm here for, can't walk out my front door
           G         A       (E)
  Without you as my guiding star
  E                 Bsus4            B           C#m
  I forget what I'm here for, can't walk out my front door
           G         A        E
  Without you as my guiding star



 BRIDGE:
              A                    E                       B            C#m
  It takes a long time to do the bridge you know from the desert to the sea
      A                      E                     B               E
  It might take a while for you and I to find the view we want to see
          A             E                  B
  But I know as long as I have you, we're right where we should be
         B
  We're right where we should be



 CHORUS 3:
  E                 Bsus4            B           C#m
  I forget what I'm here for, can't walk out my front door
           G         A       (E)
  Without you as my guiding star
  E                 Bsus4            B           C#m
  I forget what I'm here for, can't walk out my front door
           G         A
  Without you as my guiding
   C         D        E
  You as my guiding star



 OUTRO:

    A                E                B7               C#m
e]--------0----------------0----------------2---------------------------|
B]-----------------------------------------------------------5----------|
G]----2-------2---0----1-------1---0----2-------2---2----6-------6/-----|
D]------2-------2--------2-------2--------1-------1--------6------------|
A]--0---------------------------------2----------------4----------------|
E]-------------------0--------------------------------------------------|

    A                E                B7               E
e]--------0----------------0----------------2----------------0----------|
B]----------------------------------------------------------------------|
G]----2-------2---0----1-------1---0----2-------2---2----1-------1---0--|
D]------2-------2--------2-------2--------1-------1--------2-------2----|
A]--0---------------------------------2---------------------------------|
E]-------------------0---------------------------------0----------------|

    A                E                B7
e]--------0----------------0----------------2----------------2----------|
B]----------------------------------------------------------------------|
G]----2-------2---0----1-------1---0----2-------2---2----2-------2---2--|
D]------2-------2--------2-------2--------1-------1--------1-------1----|
A]--0---------------------------------2----------------2----------------|
E]-------------------0--------------------------------------------------|

    B7
e]--------2----------------2----------------2---------------------------|
B]----------------------------------------------------------------------|
G]----2-------2---2----2-------2---2----2-------2---2-------------------|
D]------1-------1--------1-------1--------1-------1---------------------|
A]--2----------------2----------------2----------------2----------------|
E]----------------------------------------------------------------------|

    C                D                E
e]-----------------------2------------0---------------------------------|
B]------1--------------------3--------0---------------------------------|
G]----------0--------------------2----1---------------------------------|
D]--------------2----0----------------2---------------------------------|
A]--3---------------------------------2---------------------------------|
E]------------------------------------0---------------------------------|





xxxxxxxxxxxxxxxxxxxxxxxxxxxxxxxxxxxxxxxxxxxxxxxxxxxxxxxxxxxxxxxxxxxxxxxxxxxxxxxxxxxxxxxxxxxxxxxxx

xxxxxxxxxxxxxxxxxxxxxxxxxxxxxxxxxxxxxxxxxxxxxxxxxxxxxxxxxxxxxxxxxxxxxxxxxxxxxxxxxxxxxxxxxxxxxxxxx





Comments


Popular Zack Hexum tabs & chords
One Spin Chords
Little City Driver Tabs
Only A Rehearsal Tabs
Open To Close Tabs
We Wont Be Tabs
Guiding Star Save The Date Ukulele
How Many Times Ukulele
Met A Girl Like You Once Ukulele
Treat Me Bad Ukulele
Two Times Two Ukulele


Song lyrics



↑ Back to top | Tablatures and chords are parodies/interpretations of the original songs. You may use it for private study, scholarship, research or language learning purposes only
© 2014 AZChords.com Contact us | Privacy policy | DMCA | Add/correct tabs | Request tabs | Top 50 tabs