» » »

Knee Deep Tabs (ver.1)

Artists:  A B C D E F G H I J K L M N O P Q R S T U V W X Y Z # 

Knee Deep Tabs (ver.1)

Zac Brown Band
Rating:
3/5 (5 votes)

Tabs too difficult? Try these video lessons and learn fast.
                (Intro)
-------------------------------------------------------------------------------
                             Knee Deep- Zac Brown Band
-------------------------------------------------------------------------------
This is my first tab and I'm pretty sure he plays it similar to this and capo 3. This 
will get you very close, but I know it isn't perfect.

Tuning: Standard capo 3


       C                                                   F
e|-----3-3----3/5-3----0------1-1----1-0---------------------------------|
B|---1------1-------1--------------------3p1------1-1----1-0-------------|
G|-0------0----------0------2------2--------2----------------0h2-0-------|
D|------------------------3-- ----3--------------2-----2-----------------|
A|---------------------------------------------3-----3-------------------|
E|-----------------------------------------------------------------------|

e|-----0-0-0-----------3-3-----3/5-3----0-----1-1-----1-0------0-0-1-0-0--|
B|-----1-1-1---------1-------1-------1--------------------3p1--1-0-1-0-1--|
G|-----0-0-0---------------0----------0-----2-------2--------2-0-0-2-0-0--|
D|-----2-2-2------------------------------3-------3------------2-0-3-0-2--|
A|-2h3-3-3-3---0-2-3-------------------------------------------3-2-3-2-3--|
E|------------3--------------------------------------------------3-1-3----|

Most of the song goes something like this. If you listen to it a few times, you should 
get the strumming pretty easy.
e|-0--1--0-0-0-----0--1--0-0-1-0-0-|
B|-1--1--1-0-1-----1--1--1-0-1-0-1-|
G|-0--2--0-0-0-----0--2--0-0-2-0-0-|
D|-2--3--2-0-2-----2--3--2-0-3-0-2-|
A|-3--3--3-2-3-----3--3--3-2-3-2-3-|
E|----1----3----------1----3-1-3---|

************************************

| /   slide up
| h   hammer-on
| p   pull-off

************************************
            
Tabs too difficult? Try these video lessons and learn fast.


comments powered by Disqus
↑ Back to top | Tablatures and chords are parodies/interpretations of the original songs. You may use it for private study, scholarship, research or language learning purposes only