» » »

Zac Brown Band, Knee Deep Chords (ver.5)

Artists:  A B C D E F G H I J K L M N O P Q R S T U V W X Y Z # 

Knee Deep Chords (ver.5)

Zac Brown Band Tabs
 Rating:
3.5/5 (8 votes)
Knee Deep lessons Tabs too difficult? Try these video lessons and learn fast
                -------------------------------------------------------------------------------
-------------------------------------------------------------------------------

Tuning: EADGBe, Capo 3rd fret

Intro:
e|-----3----3-----3h5---3-------0-----1---1-----0h1---0-----------------------|
B|---1----------1-----------1-----------------------------3p1-------1---1-----|
G|-0-----0----0-------0---0---0-----2---------2---------------2---------------|
D|--------------------------------3-----3---3-------3---3---------2---------2-|
A|--------------------------------------------------------------3-----3---3---|
E|----------------------------------------------------------------------------|

e|----------------1-1-------------3----3-----3h5---3-------0-----1---1-------|
B|0h1---1---------0-0-----------1----------1-----------1---------------------|
G|--------2p0---0-0-0---------0-----0----0-------0---0---0-----2---------2---|
D|------------2---0-0----------------------------------------3-----3---3-----|
A|----3-----------2-2-----0h2------------------------------------------------|
E|----------------3-3-0h3----------------------------------------------------|

e|1-0------------------------------------------------------------------------|
B|----3p1---1---1---0---0---1-----1-------0-1-----1h3-1----------------------|
G|--------2---2---2---0---0-----2---0---0------------------------------------|
D|----------------------------3-------0---------2----------------------------|
A|--------------------------------------------3---------3-----0h2------------|
E|--------------------------------------------------------0h3----------------|

***Sound it out when you play it, there are some short rests between notes

Verse 1:
C
Gonna put the the world away for a minute
F
Pretend I don't live in it
C              G               C   G
Sunshine gonna wash my blues away
C
Had sweet love but I lost it
F
She got too close so I fought her
        Am           G               F         G      C
Now I'm lost in the world trying to find me a better way

Wishing I was...


Chorus:
              C
Knee deep in the water somewhere
        F
Got the blue sky breeze and it don't seem fair
     C                         G                  C       G
Only worry in the world is the tide gonna reach my chair
C
Sunrise there's a fire in the sky
      F
Never been so happy
      F
Never felt so high
      Am                  G           F           G   C
And I think I might have found me my own kind of paradise


Verse 2:
C
Wrote a note said be back in a minute
F
Bought a boat and I sailed off in it
C                         G         C     G
Don't think anybody gonna miss me anyway
C
Mind on a permanent vacation
    F
The ocean is my only medication
Am          G               F          G   C
Wishing my condition ain't ever gonna go away

'Cause now I'm...


Chorus:
               C
Knee deep in the water somewhere
        F
Got the blue sky breeze blowin' wind through my hair
     C                         G                  C       G
Only worry in the world is the tide gonna reach my chair
C
Sunrise there's a fire in the sky
      F
Never been so happy
      F
Never felt so high
      Am                  G           F           G   C
And I think I might have found me my own kind of paradise


Bridge:

     Am                       C
This champagne shore washing over me
       G                              C           C7
It's a sweet sweet life livin' by the salty sea
F                       C
One day you could be as lost as me
              D
Change your geography
      G             G F Em Dm
Maybe you might be

Chorus:
(No chords)
Knee deep in the water somewhere

Got the blue sky breeze blowin' wind through my hair
                                                          G
Only worry in the world is the tide gonna reach my chair
C
Sunrise there's a fire in the sky
      F
Never been so happy
      F
Never felt so high
      Am                  G           F           G   C
And I think I might have found me my own kind of paradise


C
Come on in the water's nice
G
Find yourself a little slice
C           G
Grab a backpack of life
    Am            G           F
You'll never know until you try
         D
When you lose yourself
   G                     C
You find the key to paradise



I haven't tabbed out the riffs during the song, mostly because I prefer to strum while I 
sing, but if you want to play the riffs
just listen to the song and try and follow by ear by playing in key with the song

enjoy!
            
Submit corrections

comments powered by Disqus
↑ Back to top | Zac Brown Band Chords for Knee Deep. Lyrics for acoustic guitar and electric guitar. Tablatures and chords are parodies/interpretations of the original songs. You may use it for private study, scholarship, research or language learning purposes only