» » »

Zac Brown Band, Knee Deep Tabs (ver.3)

Artists:  A B C D E F G H I J K L M N O P Q R S T U V W X Y Z # 

Knee Deep Tabs (ver.3)

Zac Brown Band Tabs
 Rating:
4/5 (4 votes)
Knee Deep lessons Tabs too difficult? Try these video lessons and learn fast
1
                All the versions of this song weren't quite right, but my guitar teacher and I listened 
to this song and figured it out. Pretty easy and fun song to play. This is my first so I 
hope you like it.
Capo 3rd fret
CaddG: 032013
C:     032010
F:     x33211
G:     320033
Am:    002210

Intro:
   CaddG         F                C            G       C
e|---3-3---5-3-3----1-1---1-0-----------------------------------------|
B|--1-1-1-1---1------1-1-1---1------1-1-1----------------1---1--------|
G|-0-----0--------2-----2-----2------0---0-------0-0-------0----------|
D|---------------3-----------------2------2---------0---2-2-2---------|
A|--------------------------------3--------3----2-2----3---------0-2-3|
E|---------------------------------------------3----------------3-----|
   CaddG         F               Am  G  F  G  C
e|---3-3---5-3-3----1-1---1-0-----0--3--1--3--0-----------------------|
B|--1-1-1-1---1------1-1-1---1----1--3--1--3--1-----------------------|
G|-0-----0--------2-----2-----2---2--0--2--0--0-----------------------|
D|---------------3----------------2--0--3--0--2-----------------------|
A|--------------------------------0--2--3--2--3-----------------------|
E|--------------------------------0--3-----3--0-----------------------|

Verse 1:
CaddG
Gonna put the world away for a minute
F
Pretend I don't live in it
C                  G                 C
Gonna let sunshine wash my blues away
CaddG
Had sweet love, but I lost it
F
She got too close, so I fought it
         Am          G            F             G     C
Now I'm lost in the world tryin' to find me a better way

Wishin' I was....

Chorus:
CaddG
Knee deep in the water somewhere
F
Got the blue sky breeze and it don't seem fair
C                                G                    C
Only worry in the world is the tide gonna reach my chair
CaddG
Sunrise, there's a fire in the sky
F
Never been so happy never felt so high
      Am                 G          F            G     C
And I think I might have found me my own kind of paradise

Verse 2:
CaddG
Wrote a note said be back in a minute
F
Bought a boat and I sailed off in it
C                           G             C
Don't think anybody's gonna miss me anyway*
CaddG
Mind on a permanent vacation
F
The ocean is my only medication
Am         G             F             G   C
Wishin' my condition ain't ever gonna go away

Cause now I'm....

Chorus:
CaddG
Knee deep in the water somewhere
F
Got the blue sky breeze blowin' wind through my hair
C                                G                    C
Only worry in the world is the tide gonna reach my chair
CaddG
Sunrise, there's a fire in the sky
F
Never been so happy never felt so high
      Am                 G          F            G     C
And I think I might have found me my own kind of paradise

Pre-Chorus:
     Am
This champagne shore
C
washin' over me
      G
It's a sweet sweet life
C
Livin by the salty sea
Am
One day you
C
Could be as lost as me
G
Change your geography
G                     F C G
And maybe you might be....

Chorus:
CaddG
Knee deep in the water somewhere
F
Got the blue sky breeze blowin' wind through my hair
C                                G                    C
Only worry in the world is the tide gonna reach my chair
CaddG
Sunrise, there's a fire in the sky
F
Never been so happy never felt so high
      Am                 G          F            G     C
And I think I might have found me my own kind of paradise


C(x1)                        G(x1)
Come on in the water's nice, find yourself a little slice
F(x1)          G(x1)            C(x1)       G(x1)     F(x1)
Grab you a backpack of lies, you never know until you try
D7                          G                  (Outro)
When you lose yourself, you find the key to paradise

Outro:
  CaddG         F                C            G       C
e|---3-3---5-3-3----1-1---1-0-----------------------------------------|
B|--1-1-1-1---1------1-1-1---1------1-1-1----------------1---1--------|
G|-0-----0--------2-----2-----2------0---0-------0-0-------0----------|
D|---------------3-----------------2------2---------0---2-2-2---------|
A|--------------------------------3--------3----2-2----3---------0-2-3|
E|---------------------------------------------3----------------3-----|

CaddG         F                  C rift
e|---3-3---5-3-3----1-1---1-0-------------------------------|
B|--1-1-1-1---1------1-1-1---1------------------------------|
G|-0-----0--------2-----2-----2------------------0-2-0------|
D|---------------3----------------0-2-0-2-3-0-2-3-----3-2-0-|
A|-------------------------------3---3---------------------3|
E|----------------------------------------------------------|



*C rift:
e|---------------------------|
B|---------------------------|
G|----------0-2-0------------|
D|-0-2-0-2-3-----3-2-0-------|
A|3---3---------------3------|
E|---------------------------|



I will try to answer as soon as possible.
            
Submit corrections

comments powered by Disqus
↑ Back to top | Zac Brown Band Tabs for Knee Deep. Lyrics for acoustic guitar and electric guitar. 1 Tablatures and chords are parodies/interpretations of the original songs. You may use it for private study, scholarship, research or language learning purposes only