» » »

Goodbye In Her Eyes Tabs (ver.1)

Artists:  A B C D E F G H I J K L M N O P Q R S T U V W X Y Z # 

Goodbye In Her Eyes Tabs (ver.1)

Zac Brown Band
Rating:
0/5 (0 votes)

Hard to play? Try these video lessons and learn fast.
                -----------------------------------------------------------------------------
-----------------------------------------------------------------------------

Tuning: Standard, Capo on 4th

Zac does some drumming on the body and tapping on the neck while he hammers on a C chord 
and and F.
It's difficult to keep the rythym doing it so I'll tab it without that,
but you can see here at 29 sec a little bit of what he's doing:
OR:

              C                        F
e|--0----0-0--0---0---0------0----0-0--0---0---0------|
B|--1----1-1--1---1---1------1----1-1--1---1---1------|
G|--0----0-0--0---0---0------0h2--2-2--0h2-0h2-0h2----|
D|--0h2--2-2--0h2-0h2-0h2----3----3-3--3---3---3------|
A|--3----3-3--3---3---3------3----3-3--3---3---3------|
E|--0----0-0--0---0---0------0----0-0--0---0---0------|

After that he goes to this:
          C                C
e|--0---0-0-0----0-0---0---0-0-0----0-0---|
B|--1---1-1-1----1-1---1---1-1-1----1-1---|
G|--0---0-0-0----0-0---0---0-0-0----0-0---|
D|--0h2-2-2-2p0--0-0---0h2-2-2-2p0--0-0---|
A|--3---3-3-3----3-3---3---3-3-3----3-3---|
E|--0---0-0-0----0-0---0---0-0-0----0-0---|

          F                F
e|--0---0-0-0----0-0---0---0-0-0----0-0---|
B|--1---1-1-1----1-1---1---1-1-1----1-1---|
G|--0h2-2-2-2p0--0-0---0h2-2-2-2p0--0-0---|
D|--3---3-3-3----3-3---3---3-3-3----3-3---|
A|--3---3-3-3----3-3---3---3-3-3----3-3---|
E|--0---0-0-0----0-0---0---0-0-0----0-0---|

most of song continues like this until the last parts where it gets heavier.
That part i haven't figured out yet...
            
Hard to play? Try these video lessons and learn fast. | Correct




comments powered by Disqus
↑ Back to top | Tablatures and chords are parodies/interpretations of the original songs. You may use it for private study, scholarship, research or language learning purposes only