» » »

Free Tabs (ver.6)

Artists:  A B C D E F G H I J K L M N O P Q R S T U V W X Y Z # 

Free Tabs (ver.6)

Zac Brown Band
Rating:
5/5 (2 votes)

Hard to play? Try these video lessons and learn fast.
                (Intro)
Not exactly correct i was using some other guys tab it just sounded completely wrong


e|---------------------------------------------------------------------------|
B|---------------------------------------------------------------------------|
G|---------------------------------------------------------------------------|
D|-----6-6--8---------------6-6--8-------------------------------------------|
A|-6h8--------6---------6h8--------6----------6-6---8----3-------------------|
E|---------------------------------------------------------------------------|

e|---------------------------------------------------------------------------|
B|------------6------------6h7-----------------------------------------------|
G|------6------------6-------------------------------------------------------|
D|--6h8----8-----6h8----8----------------------------------------------------|
A|---------------------------------------------------------------------------|
E|---------------------------------------------------------------------------|
            
Hard to play? Try these video lessons and learn fast. | Correct




comments powered by Disqus
↑ Back to top | Tablatures and chords are parodies/interpretations of the original songs. You may use it for private study, scholarship, research or language learning purposes only