» » »

Colder Weather Tabs (ver.3)

Artists:  A B C D E F G H I J K L M N O P Q R S T U V W X Y Z # 

Colder Weather Tabs (ver.3)

Zac Brown Band
Rating:
0/5 (0 votes)

Hard to play? Try these video lessons and learn fast.
                This is my version that i like to play.
might not be perfect but it should give you a good base to start with.
tuned half step down with nylon string
pick the two low string and pluck the rest with your fingers. sounds nice when you get 
the pattern down.


Intro / verse


shed trade colorado....
---------------------------0-------|
----0--------0---------0----0------|
---2--------4---------1------1-----|
--2--------4---------2---2---------|
-0----0---2----2----2--------------|
-------------------0---------------|


closes the door before.....
-----------------------------0-0-0--|
----0--------0----------0----0-0-0--|
---2--------4----------1-----1-1-1--|
--2--------4----------2---2--2-2-2--|
-0----0---2-----2----2-------2-2-2--|
--------------------0--------0-0-0--|


continued

                              thinks of colorado......
---------------------------------------------------------0--| 
        
Hard to play? Try these video lessons and learn fast. | Correct




comments powered by Disqus
↑ Back to top | Tablatures and chords are parodies/interpretations of the original songs. You may use it for private study, scholarship, research or language learning purposes only