» » »

Zac Brown Band, Chicken Fried Tabs (ver.4)

Artists:  A B C D E F G H I J K L M N O P Q R S T U V W X Y Z # 

Chicken Fried Tabs (ver.4)

Zac Brown Band Tabs
 Rating:
4/5 (11 votes)
Chicken Fried lessons Tabs too difficult? Try these video lessons and learn fast
                Standard tuning
Intro:

||-----------------------------------------------------------------|
||--1/3--3---------------------3------0--1/3---3------------3------|
||--2/4--4--2p0-----0-----0---------0----2/4-----4----2-2-----2----|
||--------------2p0-----0---0----------------0-----0------0-----0--|
||-----------------------------------------------------------------|
||-----------------------------------------------------------------|
-
|-------------------------------------------------------------||
|--1p0----1-0--------------3---1p0---0-1----------------------||
|--0----0-----0-------0------0-----0-----------2---4---5---4 0||
|-------------------2------------------------0---0---0---0----||
|-----------------3-------------------------------------------||
|-------------------------------------------------------------||


Intro: G D C G D

Verse: G D C D

You know I like my Chicken Fried

Cold beer on a Friday night

A pair of jeans that fit just right

And the radio up


Verse:


Well I was raised underneath the shade of a Georgia pine

And that's home ya know

Sweet tea, pecan pie and homemade wine

where the peaches grow

and my house it's not much to talk about

but we were still loved and grown on southern ground


Chorus:


You know I like my Chicken Fried

Cold beer on a Friday night

A pair of jeans that fit just right

And the radio up

Well I like to see the sunrise

See the love in my woman's eyes

Feel the touch of a precious child

and my mothers love


Verse:


Ain't it funny how its the little things in life

That mean the most

Not where you live or what you drive or the

Price tag on your clothes

There's no dollar sign on peace of mind

and this I've come to know

If you agree have a drink with me

Raise your glasses for a toast


Chorus:


Verse:

I thank god for my life

And for the stars and stripes

May freedom forever fly

Let it ring

Salute those who'd died

And the ones who gives their lives

So we don't have to sacrifice

All the things we love


Chorus: 2x
            
Submit corrections

comments powered by Disqus
↑ Back to top | Zac Brown Band Tabs for Chicken Fried. Lyrics for acoustic guitar and electric guitar. Tablatures and chords are parodies/interpretations of the original songs. You may use it for private study, scholarship, research or language learning purposes only