» » »

As She's Walking Away Tabs (ver.2)

Artists:  A B C D E F G H I J K L M N O P Q R S T U V W X Y Z # 

As She's Walking Away Tabs (ver.2)

Zac Brown Band
Rating:
0/5 (0 votes)

Tabs too difficult? Try these video lessons and learn fast.
                My second tab. This is how i play it and it sounds 100% right to me. let me know 
if i need to change anything. THANKS!


E---------------------------------|
B---------------------------------|
G---------------------------------|
D--8-8-10-8-------------8-8-10-8--|
A-----------11-10-11--------------|
e---------------------------------|

E---------------------------------------------------------|
B---------------------------------------------------------|
G---------------------------------------------------------|
D-------------------------8-8-10-8-------8-8-10-8-8-10-12-|
A-11-10-8-6-8/10-8-10-11-----------11-10------------------|
e---------------------------------------------------------|

E--------------------------------------------------|
B--------------------------------------------------|
G--------------------------------------------------|
D--13-12-12-10-10-10-12-13-12-12-10-10-------------|
A--------------------------------------------------|
e--------------------------------------------------|
            
Tabs too difficult? Try these video lessons and learn fast.




comments powered by Disqus
↑ Back to top | Tablatures and chords are parodies/interpretations of the original songs. You may use it for private study, scholarship, research or language learning purposes only