» » »

Zenica Blues Bass tabs (ver.1)

Artists:  A B C D E F G H I J K L M N O P Q R S T U V W X Y Z # 

Zenica Blues Bass tabs (ver.1)

Zabranjeno Pusenje
Rating:
0/5 (0 votes)

Hard to play? Try these video lessons and learn fast.
                Bass
                                                               
G||------------------|------------------|---------------------|
D||------------------|------------------|---------------------|
A||------------------|------------------|------------0--2--4--|
E||------------------|------------------|---------------------|


                                                                     
----------------------|----------------------|----------------------|
--0---------0---------|--0---------0---------|--0---------0---------|
-------0---------0----|-------0---------0----|-------0---------0----|
----------------------|----------------------|----------------------|


                                                                     
----------------------|----------------------|----------------------|
--0---------0---------|--0-------------------|--0---------0---------|
-------0---------0----|-------0----0---------|-------0---------0----|
----------------------|-----------------0----|----------------------|


                                                                     
----------------------|----------------------|----------------------|
--0--------------0----|--0---------0---------|-------0---------0----|
-------0--------------|-------0---------0----|----------------------|
------------3---------|----------------------|--3---------3---------|


                                                                     
----------------------|----------------------|----------------------|
--0-------------------|--0-------------------|--0---------0---------|
-------0----2---------|-------0----0---------|-------0---------0----|
-----------------2----|-----------------0----|----------------------|


                                                                     
----------------------|----------------------|----------------------|
-------0---------0----|--0-------------------|--0-------------------|
----------------------|-------0----2---------|-------0----0---------|
--3---------3---------|-----------------2----|-----------------0----|


                                                                       
---------------------2--|----------------------|----------------------|
--0---------0--0--4-----|--0---------0---------|--0---------0---------|
-------0----------------|-------0---------0----|-------0---------0----|
------------------------|----------------------|----------------------|


                                                                     
----------------------|----------------------|----------------------|
--0---------0---------|--0---------0---------|--0-------------------|
-------0---------0----|-------0---------0----|-------0----0---------|
----------------------|----------------------|-----------------0----|


                                                                     
----------------------|----------------------|----------------------|
--0---------0---------|--0--------------0----|--0---------0---------|
-------0---------0----|-------0--------------|-------0---------0----|
----------------------|------------3---------|----------------------|


                                                                     
----------------------|----------------------|----------------------|
-------0---------0----|--0-------------------|--0-------------------|
----------------------|-------0----2---------|-------0----0---------|
--3---------3---------|-----------------2----|-----------------0----|


                                                                     
----------------------|----------------------|----------------------|
--0---------0---------|-------0---------0----|--0-------------------|
-------0---------0----|----------------------|-------0----2---------|
----------------------|--3---------3---------|-----------------2----|


                                                                      
----------------------|--------------------2--|----------------------|
--0-------------------|--0-----------0--4-----|--0---------0---------|
-------0----0---------|-------0---------------|-------0---------0----|
-----------------0----|-----------------------|----------------------|


                                                                     
----------------------|----------------------|----------------------|
--0---------0---------|--0---------0---------|--0---------0---------|
-------0---------0----|-------0---------0----|-------0---------0----|
----------------------|----------------------|----------------------|


                                                                     
----------------------|----------------------|----------------------|
--0-------------------|--0---------0---------|--0--------------0----|
-------0----0---------|-------0---------0----|-------0--------------|
-----------------0----|----------------------|------------3---------|


                                                                     
----------------------|----------------------|----------------------|
--0---------0---------|-------0---------0----|--0-------------------|
-------0---------0----|----------------------|-------0----2---------|
----------------------|--3---------3---------|-----------------2----|


                                                                     
----------------------|----------------------|----------------------|
--0---------0---------|--0---------0---------|-------0---------0----|
-------0----0---------|-------0---------0----|----------------------|
-----------------0----|----------------------|--3---------3---------|


                                                                      
----------------------|----------------------|--------------------2--|
--0--------------4----|--0-------------------|--0-----------0--4-----|
-------0----2---------|-------0----0---------|-------0---------------|
----------------------|-----------------0----|-----------------------|


                                                                     
----------------------|----------------------|----------------------|
--0---------0---------|--0---------0---------|--0---------0---------|
-------0---------0----|-------0---------0----|-------0---------0----|
----------------------|----------------------|----------------------|


                                                                      
-----------------------|----------------------|----------------------|
--2--2--2----2----2----|--2----2--------------|--2---------2---------|
--6--------------------|------------2---------|-------2---------2----|
-----------------------|-----------------2----|----------------------|


                                                                     
----------------------|----------------------|----------------------|
--2--------------2----|--2---------2---------|-------2---------2----|
-------2----0---------|-------2---------2----|--0---------0---------|
----------------------|----------------------|----------------------|


                                                                     
----------------------|----------------------|----------------------|
--2-------------------|--2-------------------|--2---------2---------|
-------2----4---------|-------2----2---------|-------2---------2----|
-----------------4----|-----------------2----|----------------------|


                                                                     
----------------------|----------------------|----------------------|
-------2---------2----|--2-------------------|--2-------------------|
--0---------0---------|-------2----4---------|-------2----2---------|
----------------------|-----------------4----|-----------------2----|


                       
---------------------||
--2-------------2----||
-------------2-------||
---------------------||
            
Hard to play? Try these video lessons and learn fast. | Correct




comments powered by Disqus
↑ Back to top | Tablatures and chords are parodies/interpretations of the original songs. You may use it for private study, scholarship, research or language learning purposes only