» » »

Poso Kuca Birtija Bass tabs (ver.1)

Artists:  A B C D E F G H I J K L M N O P Q R S T U V W X Y Z # 

Poso Kuca Birtija Bass tabs (ver.1)

Zabranjeno Pusenje
Rating:
0/5 (0 votes)

Hard to play? Try these video lessons and learn fast.
                Poso,Kuca,Birtija

 Ovo je manje-vise glavni riff pjesme.
G|-9-9-9-9-9-9-9-9-9-9-9-9-9-------------------------------------9-9-9...|
D|---------------------------7-7-7-7-7-7-7-7-7-7-9-9-9-9-9-9-9-9---------|
A|-----------------------------------------------------------------------|
E|-----------------------------------------------------------------------|

G|-9-9-9-9-9-9-9-9-9-9-9-9-9-------------------------------------------9..|
D|---------------------------9-9-9-9-9-9-9-9-9-9-9-7-7-7-7-7-7-7-7-7-7----|
A|------------------------------------------------------------------------|
E|------------------------------------------------------------------------|

G|-6--6-6-6-6-6-4--4-4-4--4-4-4--6--6-6-4-2-2-2-2-2-2-2--6--6-6-6-6-6-6-4-|
D|------------------------------------------------------------------------|
A|------------------------------------------------------------------------|
E|------------------------------------------------------------------------|

|------9--|Kraj
|--7*-----|
|---------|
|---------|

Mozda sam pogrjesio tacan broj nota u  riffovima.
...-nastavi
*-drzi
            
Hard to play? Try these video lessons and learn fast. | Correct




comments powered by Disqus
↑ Back to top | Tablatures and chords are parodies/interpretations of the original songs. You may use it for private study, scholarship, research or language learning purposes only