» » »

Moe Imat Moje Tijelo Tabs (ver.1)

Artists:  A B C D E F G H I J K L M N O P Q R S T U V W X Y Z # 

Moe Imat Moje Tijelo Tabs (ver.1)

Zabranjeno Pusenje
Rating:
0/5 (0 votes)

Hard to play? Try these video lessons and learn fast.
                Riff 1:

   1 + 2 + 3 + 4 + 1 + 2 + 3 +
e|-2-0-2-0---2---0-2-0-2-4-2-0-|
H|-0-0-0-0---0---0-0-0-0---0-0-|
G|-----------------------------|
D|-----------------------------|
A|-----------------------------|
E|-----------------------------|


Glavni riff:

  E                 A               
   1 + 2 + 3 + 4...  1 + 2 + 3 + 4...
e|-----------------|-----------------|
H|-----riff 1------|-----riff 1------|
D|-2---------------|-----------------|
A|-----------------|-0---------------|
E|-----------------|-----------------|

  B                 A   
   1 + 2 + 3 + 4... 1 + 2 + 3 + 4 + 1 + 2 + 3 + 4 +
e|-----------------|----2-0-2-0---2---0-2-4-2-0-----|
H|-----riff 1------|----0-0-0-0---0---0-0---0-0-----|
D|-----------------|--------------------------------|
A|-2---------------|-0------------------------------|
E|-----------------|--------------------------------|

Intro: 1x glavni riff

Refren: E  B  A  B

E
Gdje sam rodjen tu je sve sirotinja
A
vuk je kod nas domaca zivotinja
H
skrta zemlja nikoga ne hrani
A           H
da prezivis moras radit vani

Sljakao sam ja u tudjoj zemlji
sanjao sam o voljenoj zeni
sa arbeita kad bih dosa doma
gledao sam kako raste ona

Mislio sam srecu kupit novcem
sredio sam stvar sa njenim ocem
prenesoh je preko kucnog praga
mislio sam da bice moja draga

E                     H
Rekla mi je prvo vece rekla mi je sve
A                      H
Mozes imat moje tijelo ali dusu ne

Samo tijelo nista mi ne znaci
Kraj Banhoffa takve mogu naci
Zelio sam da me stvarno voli
da joj ljubav nije aerobik

Kad je sa mnom da ne skriva pogled
da ne gleda uvijek negdje pored
zagrljeni kada zora svice
da budemo kao jedno bice

2x
Rekla mi je prvo vece rekla mi je sve
Mozes imat moje tijelo ali dusu ne

(intro)
Nije mogla dugo da zanese
u nas nije bilo graje djece
sporo su nam prolazili dani
za veceru kad bi sjeli sami

Razboli se Bog je mladu uze
pamtim vjecno njene zadnje suze
i saptaje :'ti si covjek vrijedan,
ali zivot,zivot on je bijedan'

2x
Rekla mi je prvo vece rekla mi je sve
Mozes imat moje tijelo ali dusu ne

2x
Rekla mi je prvo vece
Mozes imat moje tijelo ali dusu ne

(intro) - umjesto samo A na kraju ide A B E
            
Hard to play? Try these video lessons and learn fast. | Correct




comments powered by Disqus
↑ Back to top | Tablatures and chords are parodies/interpretations of the original songs. You may use it for private study, scholarship, research or language learning purposes only