» » »

Zabranjeno Pusenje, Javi Mi Tabs (ver.1)

Artists:  A B C D E F G H I J K L M N O P Q R S T U V W X Y Z # 

Javi Mi Tabs (ver.1)

Zabranjeno Pusenje Tabs
 Rating:
4/5 (4 votes)
Javi Mi lessons Tabs too difficult? Try these video lessons and learn fast
                Zabranjeno Pusenje / Javi mi:    
  


E                                   A         E
Kad budes u sobi sa muzikom u mraku i sa sjecanjem
    E                         A   Asus4  B
Kad pozelis da ti jutro ne svane


E
Znaj, ja te jos uvijek volim
     A                E
Mene vazda mozes nazvati
     B        A
Javi mi, javi mi
          E
Ja cu cekati.


Kod kuce kad ti sloze frku zbog kola slupanih
Izmedu prsta kad ti cigara dogori

Znaj, ja te jos uvijek volim
Mene vazda mozes nazvati
Javi mi, javi mi
Ja cu cekati.

Zena kad te pita, pa dobro, sta mi fali
Zasto nikad ne radimo one stvari
Kad ode da se isplace sama
Kad vrata zalupi

Znaj, ja te jos uvijek volim
Mene vazda mozes nazvati
Javi mi, javi mi
Ja cu cekati.


(Solo)

E   A   E   A   B

Komsiluku kad postanes sumnjiv
Sto se stalno druzis s klincima
Iz mraka ulice kad Jalija ti vikne:
Os guze hadzija?

Znaj, ja te jos uvijek volim
Mene vazda mozes nazvati
Javi mi, javi mi
Ja cu cekati.


Kad budes u sobi sa muzikom u mraku i sa sjecanjem
Kad pozelis da ti jutro ne svane

Znaj, ja te jos uvijek volim
Mene vazda mozes nazvati
Javi mi, javi mi
Ja cu cekati.


Javi mi, javi mi
Ja cu cekati
Javi mi, javi mi
Ja cu cekati.


--------------------------------
--------------------------------
--9-7------------------------9--
------9-8-7------------------9--
--------------5-6-7--5-6-7---7--
--------------------------------



(Cijelu pjesmu prati ovaj Riff)


 E          (E6)    (E6)   A     E              (E6)    (E6)   A       B
-9--9---9--9-9-9---9-9-9---------9---9--9---9--9-9-9---9-9-9--------------
-7--7---9--9-119---9-119---7--7--9---7--7---9--9-119---9-119---7--7-7--9--
-7--7---7--7-7-7---7-7-7---7--7--7---7--7---7--7-7-7---7-7-7---7--7-7--9--
---------------------------5--5--------------------------------5--5-5--7--


 E          (E6)    (E6)   A    E     A     B    E
--------------------------------------------------------
--------------------------------------------------------
-9--9---9--9-9-9---9-9-9------6-9---9-6----------9--9-9-
-7--7---9--9-119---9-119---7--7-9---9-7---7-9--9-9--9-9-
-7--7---7--7-7-7---7-7-7---7--7-7---7-7---7-9--9-7--7-7-
---------------------------5----------5---5-7--7--------


 STRANGE CHORDS

E6:   0 2 2 1 2 0
            
Submit corrections

comments powered by Disqus
↑ Back to top | Zabranjeno Pusenje Tabs for Javi Mi. Lyrics for acoustic guitar and electric guitar. Tablatures and chords are parodies/interpretations of the original songs. You may use it for private study, scholarship, research or language learning purposes only