>
 >
090

090 Guitar Tabs

Zablujena Generacija - 090 chords, tabs, tablatures, lyrics

Guitar lessons | Add/correct | Request | Top 50 tabs Artists:  A B C D E F G H I J K L M N O P Q R S T U V W X Y Z 0-9

090 Guitar Tabs – Zablujena Generacija

CD, Sheet music, Poster

Do you like 090? Share with your friends now
Tabs
INTRO:
              D               G                 A
e|-----------------------------------------------------------------|
B|-----------------------------------------------------------------|
G|-----7-7-----7-7---------------------7-7-----7-7-----------------|
D|-7-7-7-7-7-7-7-7-----5-5-----5-5-7-7-7-7-7-7-7-7-----7-7-----7-7-|
A|-5-5-5-5-5-5-5-5-5-5-5-5-5-5-5-5-5-5-5-5-5-5-5-5-7-7-7-7-7-7-7-7-|
E|-----------------3-3-3-3-3-3-3-3-----------------5-5-5-5-5-5-5-5-|
   xxx     xxx     xxx     xxx     xxx     xxx     xxx     xxx

druga kitara:
       A
e|---------------|
B|-----7---------|
G|--------7------|
D|-----------7---|
A|---------------|
E|---------------|
       .  .  .


D                  G
Tako je lepa in lepo vzgojena
   D         A
nikoli ni sebicna
D            G
dobro ve kaj ona hoce
    D          A    D
ji nic ni nemogoce

                                2x
   D               G               D               A
e|-----------------------------------------------------------------|
B|-----------------------------------------------------------------|
G|-----7-7-----7-7---------------------7-7-----7-7-----------------|
D|-7-7-7-7-7-7-7-7-----5-5-----5-5-7-7-7-7-7-7-7-7-----7-7-----7-7-|
A|-5-5-5-5-5-5-5-5-5-5-5-5-5-5-5-5-5-5-5-5-5-5-5-5-7-7-7-7-7-7-7-7-|
E|-----------------3-3-3-3-3-3-3-3-----------------5-5-5-5-5-5-5-5-|

D 4x
---------|
---------|
-7-7-7-7-|
-7-7-7-7-|
-5-5-5-5-|
---------|


Rada lize in sploh ne grize
zmeraj se odzove na pozive
kadar jo slisim je nasmejana
do konca je stvari predana

   D               G               D               A
e|-----------------------------------------------------------------|
B|-----------------------------------------------------------------|
G|-----7-7-----7-7---------------------7-7-----7-7-----------------|  2x
D|-7-7-7-7-7-7-7-7-----5-5-----5-5-7-7-7-7-7-7-7-7-----7-7-----7-7-|
A|-5-5-5-5-5-5-5-5-5-5-5-5-5-5-5-5-5-5-5-5-5-5-5-5-7-7-7-7-7-7-7-7-|
E|-----------------3-3-3-3-3-3-3-3-----------------5-5-5-5-5-5-5-5-|
   xxx     xxx     xxx     xxx     xxx     xxx     xxx     xxx


Prehod v refren:
D        G
Mala mala je kraljica
D        A
mala mala gospodarica
D        G
mala mala srce ti vzame
D        A
mala mala vsazga vname

                               2x
   D               G               D               A
e|-----------------------------------------------------------------|
B|-----------------------------------------------------------------|
G|-----------------------------------------------------------------|
D|-7-7-7-7-7-7-7-7-----------------4-4-4-4-4-4-4-4-----------------|
A|-5-5-5-5-5-5-5-5-5-5-5-5-5-5-5-5-5-5-5-5-5-5-5-5-7-7-7-7-7-7-7-7-|
E|-----------------3-3-3-3-3-3-3-3-----------------5-5-5-5-5-5-5-5-|

-----------------|
-----------------|
-----------------|
-7-7-7-7-7-7-7-7-|
-7-7-7-7-7-7-7-7-|
-5-5-5-5-5-5-5-5-|


REFREN:
(igraj power akorde)

D       A        H        G
Pripoveduje le vroce stvari
D       A              H        G
na zivljenje gleda s svetle plati
D          A          H           G
zmeraj daje ti obcutek in ta je zlo mogocen
D          A        H             G
da si zanjo ti edini ki ga ona strastno hoce

konec refrena:
   G
e|-----------------|
B|-----------------|
G|-----7-7-----7-7-|  2x
D|-0-0-5-5-0-0-5-5-|
A|-----------------|
E|-----------------|


VERZ:

Ona je iz reklame
ona je sam slika
in le cifra telefona
v tej zgodbi je resnicna

   D        G        D        A
e|--------------------------------------|
B|--------------------------------------|
G|-7-7---------------7-7----------------|  2x
D|-7-7------5-5------7-7------7-7--7-7--|
A|-5-5------5-5------5-5------7-7--7-7--|
E|----------3-3---------------5-5--5-5--|

druga kitara:
   D             G             D             A
e|-10-10--10-10--10-10--10-10--10-10--10-10--9--9---9--9---|
B|-10-10--10-10--12-12--12-12--10-10--10-10--10-10--10-10--|
G|-11-11--11-11--12-12--12-12--11-11--11-11--9--9---9--9---|  2x
D|---------------------------------------------------------|
A|---------------------------------------------------------|
E|---------------------------------------------------------|


Prehod v refren:
D        G
Mala mala je kraljica
D        A
mala mala gospodarica
D        G
mala mala srce ti vzame
D        A
mala mala vsazga vname

                               2x
   D               G               D               A
e|-----------------------------------------------------------------|
B|-----------------------------------------------------------------|
G|-----------------------------------------------------------------|
D|-7-7-7-7-7-7-7-7-----------------4-4-4-4-4-4-4-4-----------------|
A|-5-5-5-5-5-5-5-5-5-5-5-5-5-5-5-5-5-5-5-5-5-5-5-5-7-7-7-7-7-7-7-7-|
E|-----------------3-3-3-3-3-3-3-3-----------------5-5-5-5-5-5-5-5-|


-----------------|
-----------------|
-----------------|
-7-7-7-7-7-7-7-7-|
-7-7-7-7-7-7-7-7-|
-5-5-5-5-5-5-5-5-|


REFREN:
(igraj power akorde)

D       A        H        G
Pripoveduje le vroce stvari
D       A              H        G
na zivljenje gleda s svetle plati
D          A          H           G
zmeraj daje ti obcutek in ta je zlo mogocen
D          A        H             G
da si zanjo ti edini ki ga ona strastno hoce


BRIDGE:

   D        G    A
e|--------------------|
B|--------------------|
G|-7------------------|  2x
D|-7--------5----7----|
A|-5--------5----7----|
E|-5--------3----5----|

             2x
   D          G        A
e|------------------------9---|-/12--12-12-12-12-12-12-12-|
B|-7--------------12----------|---------------------------|
G|----7-------12--------------|---------------------------|
D|-------7-------------7------|---------------------------|
A|----------------------------|---------------------------|
E|----------------------------|---------------------------|
   .  .  .    .    .   .


REFREN:
(igraj power akorde)

D       A        H        G
Pripoveduje le vroce stvari
D       A              H        G
na zivljenje gleda s svetle plati
D          A          H           G
zmeraj daje ti obcutek in ta je zlo mogocen
D          A        H             G
da si zanjo ti edini ki ga ona strastno hoce
D          A          H           G
zmeraj daje ti obcutek in ta je zlo mogocen
D          A        H             G            D
da si zanjo ti edini ki ga ona strastno hoce





Comments


Popular Zablujena Generacija tabs & chords
Kdo Hoce Plesati Z Menoj Chords
Metulj Chords
Imam Vse Tabs
Patricija Tabs
Pozitiv Vabrejsan Tabs
Kdo Hoce Plesati Z Menoj Ukulele
Metulj Ukulele


Song lyrics



↑ Back to top | Tablatures and chords are parodies/interpretations of the original songs. You may use it for private study, scholarship, research or language learning purposes only
© 2014 AZChords.com Contact us | Privacy policy | DMCA | Add/correct tabs | Request tabs | Top 50 tabs