>
 >
Getting Wise

Getting Wise Guitar Tabs

Yves Klein Blue - Getting Wise chords, tabs, tablatures, lyrics

Guitar lessons | Add/correct | Request | Top 50 tabs Artists:  A B C D E F G H I J K L M N O P Q R S T U V W X Y Z 0-9

Getting Wise Guitar Tabs – Yves Klein Blue

CD, Sheet music, Poster

Do you like Getting Wise? Share with your friends now
ChordsTabsUkulele
 Track: Getting Wise

Intro
e-------------------------|
B-------------------------|
G--------------7-----9----|
D----7----9----7-----9----|
A----7----9----5-----7----|
E----5----7---------------| the last chord is played on the last beat
those are the chords for the intro, find the rhythm by listening


Verse 1
e----------------------------------------------|
B----------------------------------------------|
G----------------------------------------------|
D----7-----------------------------------------|
A----7-----------------------------------------|
E----5-----------------------------------------|
     Oh, youre steeped in the winters chase
e--------------------------------------|
B--------------------------------------|
G--------------------------------------|
D------------------9---------4-------9-|
A------------------9---------4-------9-|
E------------------7---------2-------7-|
   Even before the Tenenbaum has all dried up,
e--------------------------------------------------|
B--------------------------------------------------|
G--1-----------------------------------------------|
D--2-----------------------------7-------------7---|
A--2-----------------------------7-------------7---|
E--------------------------------5-------------6---|
   But Im going to teach to you different this time
e-------------------------------------|
B-------------------------------------|
G--------------------------------1----|
D--9-----------------------------2----|
A--9-----------------------------2----|
E--7----------------------------------|
   Im awful clever as you almost certainly know.

Verse 2
Same chord progression as Verse 1.

Pre Chorus
e----------------------------------------------------------|
B----------------------------------------------------------|
G-------------7-----------------------------------------1--|
D-------------7------------6----------------4-----------2--|
A-------------5------------6----------------4-----------2--|
E--------------------------4----------------2--------------|
    There are few who will know where their heart truly lie,
e-----------------------------------------------------|
B-----------------------------------------------------|
G-------------------------1---------------------------|
D----------7--------------2--------------9---------4--|
A----------7--------------2--------------9---------4--|
E----------5-----------------------------7---------2--|
   For the rest theres no hope: they can barely decide!
e---------------------------------------------|
B---------------------------------------------|
G------------------6----------11---------7----|
D-------7----------6----------11----4----7----|
A-------7----------4----------9-----4----5----|
E-------5---------------------------2---------|
   So a few um and ah so they never ever start!
e--------------------------------------------------------|
B--------------------------------------------------------|
G------------------------------------1-------------------|
D------------7-----------------------2-------------------|
A------------7-----------------------2-------------------|
E------------5-------------------------------------------|
   So if you want my advice you dont have to ask me twice Ill tell you darling:

   chorus
   (Is exactly the same as intro)
e--------------------------------------------------------|
B--------------------------------------------------------|
G--------------------------------------------7------9----|
D---7------------------9---------------------7------7----|
A---7------------------9---------------------5------7----|
E---5------------------7---------------------------------|
         We're getting wise tryin to find our feet


      Verse 3
      Same As Verse 1

     Bridge
e--------------------------------------------------------------|
B--------------------------------------------------------------|
G----------6------------------------------7--------------------|
D----------6------------------------------7--------------------|
A----------4------------------------------5--------------------|
E--------------------------------------------------------------|
   Or else run, you could hide, you could see what its like,
e----------------------------------------------------|
B----------------------------------------------------|
G-------------------------------------1--------------|
D-------------7-----------------------2--------------|
A-------------7-----------------------2--------------|
E-------------5--------------------------------------|
   Youll soon find its no fun to have fun all the time!
e--------------------------------------------------------------|
B--------------------------------------------------------------|
G----------6------------------------------7--------------------|
D----------6------------------------------7--------------------|
A----------4------------------------------5--------------------|
E--------------------------------------------------------------|
   Go find God in some form, let his love keep you warm,
e----------------------------------------------------|
B----------------------------------------------------|
G-------------------------------------1--------------|
D-------------7-----------------------2--------------|
A-------------7-----------------------2--------------|
E-------------5--------------------------------------|
     Its entirely your call if he calls you.
e--------------------------------------------------|
B--------------------------------------------------|
G--------6----------------------7------------------|
D--------6----------------------7------------------|
A--------4----------------------5------------------|
E--------------------------------------------------|
 But if you would desire in all things to be wise
e-----------------------------------------------|
B-----------------------------------------------|
G--------------------------------------1--------|
D-----------7--------------------------2--------|
A-----------7--------------------------2--------|
E-----------5-----------------------------------|
   youll be none the wiser if you ever get there,
e--------------------------------------------------------------------------|
B--------------------------------------------------------------------------|
G------6----------------------7---------------------------------1----------|
D------6----------------------7------------------------7--------2----------|
A------4----------------------5------------------------7--------2----------|
E------------------------------------------------------5-------------------|
   The truth of your idols is most of them died before anybody saw.

     Pre Chorus
e--------------------------------------------------------------------------|
B--------------------------------------------------------------------------|
G------------7------------6----------------------------1-------------------|
D------------7------------6----------------4-----------2-------------------|
A------------5------------4----------------4-----------2-------------------|
E------------------------------------------2-------------------------------|
   There are few who will know where their heart truly lie,
e--------------------------------------------------------------------------|
B--------------------------------------------------------------------------|
G-----------------------1--------------------------------------------------|
D-------------7---------2-----------9------------4-------------------------|
A-------------7---------2-----------9------------4-------------------------|
E-------------5---------------------7------------2-------------------------|
    much less I, Im not nearly as clever as Id like.
e--------------------------------------------------------------------------|
B--------------------------------------------------------------------------|
G--------------------6--------------11--1-------7--------------------------|
D----------7---------6--------------11--2-------7--------------------------|
A----------7---------4--------------9---2-------5--------------------------|
E----------5---------------------------------------------------------------|
   So what I mean to say is I dont know what to say!

    Chorus A couple Of times, Same as before.

    End Of Song





Comments


Popular Yves Klein Blue tabs & chords
About The Future 2 Chords
Celebrity Death Chords
Gin Sling Chords
Polka Chords
Silence Is Distance Chords
About The Future 1 Tabs
Dinosaur Tabs
Celebrity Death Ukulele
Getting Wise Ukulele
Polka Ukulele


Song lyrics



↑ Back to top | Tablatures and chords are parodies/interpretations of the original songs. You may use it for private study, scholarship, research or language learning purposes only
© 2014 AZChords.com Contact us | Privacy policy | DMCA | Add/correct tabs | Request tabs | Top 50 tabs