» » »

Yuki Kajiura, Fake Wings Tabs (ver.2)

Artists:  A B C D E F G H I J K L M N O P Q R S T U V W X Y Z # 

Fake Wings Tabs (ver.2)

Yuki Kajiura Tabs
 Rating:
4.3/5 (6 votes)
Fake Wings lessons Tabs too difficult? Try these video lessons and learn fast
                Don't know the artist, lol, it's an OST from .hack.

am 100% sure of this, but it's just the melody, no bass or something, this is my first 
will add the bass thingy after this.. ^^ ENJOY hack fanatics.
-5------5--3-------3-1----0-----5-|
----6-8-------5-6------3----1-3---|
----------------------------------|
----------------------------------|
----------------------------------|
----------------------------------|

-5------5--3------3--1----0---1-0-0---|
----6-8-------5-6------3------------3-|
--------------------------------------|
--------------------------------------|
--------------------------------------|
--------------------------------------|

-10-----------6---8--10----8-----------5-6-8-6---5-3-1-3--0------1--3-|
----------------------------------------------------------------------|
----------------------------------------------------------------------|
----------------------------------------------------------------------|
----------------------------------------------------------------------|
----------------------------------------------------------------------|

-5-----------5---3--------0-1-3-1-----0---1-0-0------------------5-|
------6--8-------------------------3--------------3---1-3------3-3-|
-------------------------------------------------------------2-----|
-----------------------------------------------------------0-------|
-------------------------------------------------------------------|
-------------------------------------------------------------------|
            
Submit corrections

comments powered by Disqus
↑ Back to top | Yuki Kajiura Tabs for Fake Wings. Lyrics for acoustic guitar and electric guitar. Tablatures and chords are parodies/interpretations of the original songs. You may use it for private study, scholarship, research or language learning purposes only