» » »

Yuki Kajiura, Fake Wings Tabs (ver.1)

Artists:  A B C D E F G H I J K L M N O P Q R S T U V W X Y Z # 

Fake Wings Tabs (ver.1)

Yuki Kajiura Tabs
Rating:
0/5 (0 votes)
Fake Wings lessons Tabs too difficult? Try these video lessons and learn fast
                I posted the other one for this, the bass, and the last part was added accidentally, 
part of the whole song, here it is.

-5------5--3-------3-1----0-----5-|
-6--6-8----5--5-6------3----1-3-3-|
-7---------5-----------3----0-2---|
----------------------------------|
----------------------------------|
----------------------------------|

-5------5--3------3--1----0---1-0-0---|
-6--6-8----5--5-6------3--1---1-----3-|
-7---------5-----------3------------3-|
-0--------------------------2-----2-3-|
--------------------------3---------1-|
--------------------------------------|

-10-----------6---8--10----8-----------5-6-8-6---5-3-1-3--0------1--3-|
-------11---------6---------------------------------------1---1--1--1-|
----10----10------7-------------10-----------------0-------------0----|
--8---------------8----------10----10--------------0--------2----2----|
----------------8----------8-----------3-------8----------1------3----|
--------------6------------------------------6------------------------|

-5-----------5---3--------0-1-3-1-----0---1-0-0------------------5-|
-------6--6-8----------5------------3-1---1-------3---1-3------3-3-|
-----7---------------5--------------3-------------3-----2----2-----|
---7---------------5--------------3-----2-------3----------0-------|
-5---------------3--------------1-----3-------1--------------------|
-------------------------------------------------------------------|

-------3-----1-1p0h1---0-1-0-0------|
-----3-----3---------3-----------3--|
---2-----2-----------------------3--|
-0-----0-----------------------3----|
---------------3-------------1------|
------------------------------------|

ps. my friend and I worked on this, so I don't take full credit.
            

comments powered by Disqus
↑ Back to top | Yuki Kajiura Tabs for Fake Wings. Lyrics for acoustic guitar and electric guitar. Tablatures and chords are parodies/interpretations of the original songs. You may use it for private study, scholarship, research or language learning purposes only