» » »

Yui, Tomorrows Way Tabs (ver.2)

Artists:  A B C D E F G H I J K L M N O P Q R S T U V W X Y Z # 

Tomorrows Way Tabs (ver.2)

Yui Tabs
Rating:
0/5 (0 votes)
Tomorrows Way lessons Tabs too difficult? Try these video lessons and learn fast
                (Intro)
e|-12/15--15--13-------------------------------------------------|
B|----------------15--13---13--15/17--18-17--15-------------13---|
G|---------------------------------------------------13/15-------|
D|-----------------------------------------------15--------------|
A|---------------------------------------------------------------|
E|---------------------------------------------------------------|

e|---------------12p13--13---11----------------------------------|
B|-13/15--15----------------------13---11------------------------|
G|---------------------------------------------------------------|
D|---------------------------------------------------------------|
A|---------------------------------------------------------------|
E|---------------------------------------------------------------|

yay!!! this is the accurate one which took me a few litsens to do. enjoy
            
Submit corrections

comments powered by Disqus
↑ Back to top | Yui Tabs for Tomorrows Way. Lyrics for acoustic guitar and electric guitar. Tablatures and chords are parodies/interpretations of the original songs. You may use it for private study, scholarship, research or language learning purposes only