» » »

Rolling Star Tabs

Artists:  A B C D E F G H I J K L M N O P Q R S T U V W X Y Z # 

Rolling Star Tabs

(ver. 2)
Yui Tabs
 Rating:
4/5 (4 votes)
    Rolling Star lessons Tabs too difficult? Try these video lessons and learn fast
                (Intro)
e|------------0----0-------------0----0-----------0----0---------5----5------------|
B|----------3----3-------------3----3-----------3----3--------3----3---------------|
G|----4—-4--------------2--2--------------0--0-------------2-----------------------|
D|---------------------------------------------------------------------------------| 
A|---------------------------------------------------------------------------------|
E|---------------------------------------------------------------------------------|

e|------------0----0-------------0----0-----------0----0---------5----|
B|----------3----3-------------3----3-----------3----3--------3----3--|
G|----4—-4--------------2--2--------------0--0-------------2----------|  D (strum)
D|--------------------------------------------------------------------| 
A|--------------------------------------------------------------------|
E|--------------------------------------------------------------------|
            
Submit corrections

↑ Back to top | Yui Tabs for Rolling Star. Lyrics for acoustic guitar and electric guitar. Tablatures and chords are parodies/interpretations of the original songs. You may use it for private study, scholarship, research or language learning purposes only