>
 >
 >
Rolling Star 1

Rolling Star 1 Guitar Tabs

Yui - Rolling Star 1 chords, tabs, tablatures, lyrics

Guitar lessons | Add/correct | Request | Top 50 tabs Artists:  A B C D E F G H I J K L M N O P Q R S T U V W X Y Z 0-9

Rolling Star 1 Guitar Tabs – Yui

CD, Sheet music, Poster

Do you like Rolling Star 1? Share with your friends now
ChordsTabsTabs v2Tabs v3Tabs v4Tabs v5Tabs v6Ukulele
Standard Tuning

Rhythm intro/chorus
e-------------------------------------|
b-------------------------------------|
g-44444444-77777777-------------------|
d-44444444-77777777-77777777-55555555-|
a-22222222-55555555-77777777-55555555-|
e-------------------55555555-33333333-|

Lead intro
e-----0---------0--------0--------5----|
B---3---3-----3---3----3---3----3---3--|
G-4---------2--------0--------4--------|
D--------------------------------------|
A--------------------------------------|
E--------------------------------------|

e-----0---------0--------0--------5---5-xx-5-xx-5-|
B---3---3-----3---3----3---3----3---3-3-xx-3-xx-3-|
G-4---------2--------0--------4-------4-xx-4-xx-4-|
D-------------------------------------------------|
A-------------------------------------------------|
E-------------------------------------------------|

Verses
Rhythm
e-------------------------------------|
b-------------------------------------|
g-77777777----------77777777----------|2x
d-77777777-55555555-77777777-55555555-|
a-55555555-55555555-55555555-55555555-|
e----------33333333----------33333333-|

Lead
e-------10~--|
b----10------|
g-11---------|
d------------|
a------------|
e------------|

Pre-Chorus (Both or Rhythm Guitar)
e----------------------|
b----------------------|
g----------------------|
d-4--4--4-5--4--4--4-5-|
a-4--4--4-5--4--4--4-5-|
e-2--2--2-3--2--2--2-3-|

Chorus
e-------------------------------------|
b-------------------------------------|
g-44444444-77777777-------------------|
d-44444444-77777777-77777777-55555555-|
a-22222222-55555555-77777777-55555555-|
e-------------------55555555-33333333-|
.
Lead guitar
e-10-9----10-9----10-9--|
b------10------10-------|
g-----------------------|
d-----------------------|
a-----------------------|
e-----------------------|

intro
verse
pre-chorus
chorus

Bridge
Rhythm
e-----------------------------------------------------------------|
b-----------------------------------------------------------------|
g-4--4~--7--7~----------------44444444-77777777-------------------|
d-4--4~--7--7~--7--7~--5--5~--44444444-77777777-77777777-55555555-|
a-2--2~--5--5~--7--7~--5--5~--22222222-55555555-77777777-55555555-|
e---------------5--5~--3--3~--------------------55555555-33333333-|

Solo
Rhythm
e------------------------------|
b------------------------------|
g------------------------------|
d-4--4-4-4--4-4--5--5-5-5--5-5-| 3x
a-4--4-4-4--4-4--5--5-5-5--5-5-|
e-2--2-2-2--2-2--3--3-3-3--3-3-|

e------------------------------------------------|
b------------------------------------------------|
g-141414-14/1212-12/1111-11/9/7-77-7/66-6/4/2~---|
d--x-x-x--x/-x-x--x/-x-x--x/x/x-xx-x/xx-x/x/x~---|
a-121212-12/1010-10/-9-9--9/7/5-55-5/44-4/2/0~---|
e------------------------------------------------|


Lead
e---------------------------------------------|
b-151515-15/12-1212-12/7-777-7b~----------8-7-|
g-141414-14/11-1111-11/6----------------7-----|
d--------------------------------9b~--9-------|
a---------------------------------------------|
e---------------------------------------------|
solo continued
e-9/1010-9/10101010-9/10101010-9/10101010-15-14-------------------------------|
B-9/1010-9/10101010-9/10101010-9/10101010-------15----------------------------|
G-------------------------------------------------------------12-14b14b14b----|
D-------------------------------------------------12-12-14-14-----------------|
A-----------------------------------------------------------------------------|
E-----------------------------------------------------------------------------|

post bridge
rhythm
e-------------------------------------|
b-------------------------------------|
g----------55555555----------77777777-|
d-22222222-55555555-55555555-77777777-| 3x
a-22222222-33333333-55555555-55555555-|
e-00000000----------33333333----------|

e-----------------------------------------|
b-----------------------------------------|
g-55555555--------------------------------|
d-55555555-55555555-7777777777777777-9-99-|
a-33333333-55555555-7777777777777777-9-99-|
e----------33333333-5555555555555555-7-77-|

lead
e--------------------------------------|
b--8-7-8---8-7-8---8-7-8-10-8-7-8-7-8--|
g-7------7-------7---------------------| 4x
d--------------------------------------|
a--------------------------------------|
e--------------------------------------|

chorus
post chorus
intro





Comments


Popular Yui tabs & chords
Green Alive Chords
I Know Chords
My Friend Chords
Please Stay With Me Chords
Ready To Love Chords
Your Heaven Chords
Your Heaven 1 Chords
Laugh Away Tabs
How Crazy Ukulele
Understand Ukulele


Song lyrics



↑ Back to top | Tablatures and chords are parodies/interpretations of the original songs. You may use it for private study, scholarship, research or language learning purposes only
© 2014 AZChords.com Contact us | Privacy policy | DMCA | Add/correct tabs | Request tabs | Top 50 tabs