» » »

Yu Grupa, Reka Tabs (ver.1)

Artists:  A B C D E F G H I J K L M N O P Q R S T U V W X Y Z # 

Reka Tabs (ver.1)

Yu Grupa Tabs
 Rating:
4/5 (4 votes)
Reka lessons Tabs too difficult? Try these video lessons and learn fast
                Hallo, my name is Vladimir, Im from Serbia.
This song is very relaxing, and the reason I tabbed this is cute solo at the end of this song.






              YU Grupa - Reka



Intro: Aadd9, B11 } 3X; E


      Aadd9      B11      Aadd9      B11      Aadd9      B11      E      E
e|-------0---------0---------0---------0---------0---------0----------0--0--|
B|------2--2--------4-------2--2--------4-------2--2--------4--------0---0--|
G|-----4--4------4---4-----4--4------4---4-----4--4------4---4------1----1--|
D|----2---------4---------2---------4---------2---------4----------2-----2--|
A|---0---------2---------0---------2---------0---------2----------2------2--|
E|---------------------------------------------------------------0-------0--|




     B11*      Asus2       E
Reka nosi moju tugu prema tebi
     B11*        Asus2         E
nosi je k'o neku ostavljenu stvar
       B11*       Asus2    E
ja sam tajnu dugo cuvao u sebi
   C#m4/7                   B11*
al' neko zna zasto sad reka otvara i zna



Reka nosi moju tugu prema tebi
nosi je k'o neku izgubljenu stvar
dok prasina pada preko mojih snova
ti si svetla sva, uznesena



Reka nosi moju tugu prema tebi
nosi je k'o neki otkinuti cvet
niko ne zna da si postojala davno
samo reka zna, tajnu sakriva



Bm11                      Aadd9
Tu gde sada neznan vetar svira
C6         B4/7      E
tu je pala moja muzika
       Bm11                   Aadd9
tu gde sada samo neznan vetar svira
       C6        B4/7        E
tu smo bili bela breza, ti i ja
C#m4/7      B11*     E
breza, ti i ja, nekada



Reka nosi moju tugu prema tebi
nosi je k'o neku ostavljenu stvar
ja sam tajnu dugo cuvao u sebi
reka tajnu zna, reka jedina


Intro


Tu gde sada neznan vetar svira
tu je pala moja muzika
tu gde sada samo neznan vetar svira
tu smo bili bela breza, ti i ja
breza, ti i ja, nekada


SOLO 2X (second time fadeout):


1.      B11*  Asus2     E         2.    B11*  Asus2     E
e|-------------------------------|-------------------------0-12---|
B|-------------------------------|--------------------------------|
G|-------8------6---6-8-4--------|-------8------6---6-8-4---------|
D|---6\4----4\2------------2-----|---6\4----4\2-------------------|
A|-------------------------------|--------------------------------|
E|---------------------------0---|--------------------------------|


3.      B11*     Asus2           E             4.   C#m4/7               B11*
e|--------------------------------------------|----9-9/12-9--9-7-9-----9-9/12-9--9-7-7--|
B|--------------------------------------------|--10------------------10-----------------|
G|-------8---8-9-9/11-9-9--11-11/13-11-11\9-9-|-9-------------------9-------------------|
D|---6\4--------------------------------------|-----------------------------------------|
A|--------------------------------------------|-----------------------------------------|
E|--------------------------------------------|-----------------------------------------|


5.            B11*         Asus2           E
e|---9-11-12-11----9-11-12-11----9-11-12-11----------------|
B|-------------12------------10------------9---9\7/12-12---|
G|---------------------------------------------------------|
D|---------------------------------------------------------|
A|---------------------------------------------------------|
E|---------------------------------------------------------|


6.            B11*         Asus2           E
e|---9-11-12-11----9-11-12-11----9-11-12-11------7-9-7-----|
B|-------------12------------10------------9---------------|
G|---------------------------------------------------------|
D|---------------------------------------------------------|
A|---------------------------------------------------------|
E|---------------------------------------------------------|


7.            B11*              Asus2                 E
e|---9-11-12-11----12---9-11-12-11----12----9-11-12-11----12---12-14-12---|
B|-------------12-----------------10------------------9-------------------|
G|------------------------------------------------------------------------|
D|------------------------------------------------------------------------|
A|------------------------------------------------------------------------|
E|------------------------------------------------------------------------|


8.          C#m4/7                           B11*
e|-----------12\9-9\5-9\5---------------------7-9-7-7-----------||
B|---7-9-10---------------10\7-10\7--7\5/7------------7/12-12---||
G|--------------------------------------------------------------||
D|--------------------------------------------------------------|| 
A|--------------------------------------------------------------||
E|--------------------------------------------------------------||


The End


...if you find an acoustic version of this song, released on their album "Live!", last year, 2007,
you can find there the same solo, but with better ending, and heres how it goes:
you play whole solo ones, then the second time you play only 3 parts, and then:



6.  C#m4/7                        B11*
e|----12-11-9----------------------7-9-7-7-----------|
B|---9--9--9-9-12-9-10-9----12-------------7/12-12---|
G|----------------------11-9-------------------------|
D|---------------------------------------------------|
A|---------------------------------------------------|
E|---------------------------------------------------|


...and then finishing with:

        B11*   Asus2      E
e|-------------------------------------------|
B|-------------------------------------------|
G|-------8-------6---6-8-8/9--2/4--2--1------|
D|---6\4-----4\2-------------------------2---|
A|-------------------------------------------|
E|-------------------------------------------|




Used chords:

           EADGBe
Aadd9------x02420
B11--------x24440
B11*-------x24400
E----------022100
Asus2------x02200
C#m4/7-----x44200
Bm11-------x24430
C6---------x32210
B4/7-------x22230
            
Submit corrections

comments powered by Disqus
↑ Back to top | Yu Grupa Tabs for Reka. Lyrics for acoustic guitar and electric guitar. Tablatures and chords are parodies/interpretations of the original songs. You may use it for private study, scholarship, research or language learning purposes only