» » »

Od Zlata Jabuka Bass tabs (ver.1)

Artists:  A B C D E F G H I J K L M N O P Q R S T U V W X Y Z # 

Od Zlata Jabuka Bass tabs (ver.1)

Yu Grupa
Rating:
0/5 (0 votes)

Hard to play? Try these video lessons and learn fast.
                Band: Yu Grupa

standard tunning(E,A,D,G)
POCETAK i STROFA1 x3
G|----------------------------------------|
D|----------------------------------------|
A|-2--2-0--0------0--0-2--2-0--0----------|
E|-----------0--0----------------0--3--5--|

G|----------------------------------------|
D|----------------------------------------|
A|-2--2-0--0------0--0-2--2-0--0------2---|
E|-----------0--0----------------0--0-----|

STROFA2
G|-----------------------------------------------------------|
D|-----------------------------------------------------------|
A|-5--5-5----------0--0-0----------5--5-5--0--0-0--7~-7/10-7-|
E|---------3--3-3----------3--3-3----------------------------|

G|--------------------------------------------------------|
D|--------------------------------------------------------|
A|-5--5-5----------0--0-0----------5--5-5--0--0-0--7~~~-2-|
E|---------3--3-3----------3--3-3-------------------------|

REFREN x2
G|--------------------------------------|
D|--------------------------------------|
A|-0--0-2--2-----------0--0-2--0--------|
E|-----------0--0-3--3-----------0--0-3-|

G|--------------------------------------------------------|
D|-------------------------------------2-4-5-4-2----------|
A|---0--0-2--2-----------0--0-2--0-2-4-----------5-4-2-0--|
E|-3-----------0--0-3--3----------------------------------|

STROFA2
REFREN X2

KRAJ
G|----------------------------------------|
D|----------------------------------------|
A|-2--2-0--0------0--0-2--2-0--0----------|
E|-----------0--0----------------0--3--5--|

G|----------------------------------------|
D|----------------------------------------|
A|-2--2-0--0------0--0-2--2-0--0----2-2---|
E|-----------0--0----------------0--------|

Eto, to bi bilo to, sve je 100% tacno, samo sto na kraju refrena kada drugi put ponavlja 
produzuje onu skalu...
            
Hard to play? Try these video lessons and learn fast. | Correct




comments powered by Disqus
↑ Back to top | Tablatures and chords are parodies/interpretations of the original songs. You may use it for private study, scholarship, research or language learning purposes only