» » »

Kosovski Bozuri Tabs (ver.2)

Artists:  A B C D E F G H I J K L M N O P Q R S T U V W X Y Z # 

Kosovski Bozuri Tabs (ver.2)

Yu Grupa
Rating:
0/5 (0 votes)

Tabs too difficult? Try these video lessons and learn fast.
                


Tuning:

e|-/3-5-3-2-2-0-------|---5-3-2-3-|
B|--------------3-+5+-|-5---------|
G|--------------------|-----------|
D|--------------------|-----------|
A|--------------------|-----------|
E|--------------------|-----------|

Play this 3 times.

Then make one little pause and play part 2 much more faster… (this is olso a part after 
so this is easy to say outro)

e|-2-333-2-3-5-2-|-----------------|-2-333-2-3-5-2-|------5--|
B|---------------|-3-555-3-+5+-+3+-|---------------|-3-555-5-|
G|---------------|-----------------|---------------|---------|
D|---------------|-----------------|---------------|---------|
A|---------------|-----------------|---------------|---------|
E|---------------|-----------------|---------------|---------|

Play this 3 times!

Then play part 3..

e|---------------|---------------|---------------|------------|
B|---------------|-------------8-|---------------|------------|
G|----9-10-9-777-|----9-10-9-7---|----9-10-9-777-|---9-10-9-7-|
D|-10------------|-10------------|-10------------|10----------|
A|---------------|---------------|---------------|------------|
E|---------------|---------------|---------------|------------|

Play part 3 two times…

That’s that..

Enjoy!

| /  slide up
| +  harmonic
            
Tabs too difficult? Try these video lessons and learn fast.




comments powered by Disqus
↑ Back to top | Tablatures and chords are parodies/interpretations of the original songs. You may use it for private study, scholarship, research or language learning purposes only