» » »

Yu Grupa, Kosovski Bozuri Tabs (ver.1)

Artists:  A B C D E F G H I J K L M N O P Q R S T U V W X Y Z # 

Kosovski Bozuri Tabs (ver.1)

Yu Grupa Tabs
 Rating:
4/5 (4 votes)
Kosovski Bozuri lessons Tabs too difficult? Try these video lessons and learn fast
                Yu Grupa / Kosovski bozuri:    
  

Prvi dio 
e|--------------------------------|-------------------|
B|--------------------------------|----9--------------|
G|-10b11--pb13r11-10--10h8-6--6h8-|--11-11-10-10-11---|
D|--------------------------------|-------------------|
A|--------------------------------|-------------------|
E|--------------------------------|-------------------|
 
e|--------------------------------|-------------------|
B|--------------------------------|-------------------|
G|-10b11--pb13r11-10--10h8-6--6h8-|--8b10r8--8b10r8---|
D|--------------------------------|-------------------|
A|--------------------------------|-------------------|
E|--------------------------------|-------------------|
 
Drugi dio
 
e|-----------------------------|------------------------|
B|-------------------------9---|------------------------|
G|-10b11-11-11-10--11-11-11-10-|----8-8-8----8b10r8-----|
D|-----------------------------|-11-------11--------11--|
A|-----------------------------|------------------------|
E|-----------------------------|------------------------|
 
e|-----------------------------|--------------------|
B|-------------------------9---|--------------------|
G|-10b11-11-11-10--11-11-11-10-|----8-8-8--10--8----|
D|-----------------------------|-11-----------------|
A|-----------------------------|--------------------|
E|-----------------------------|--------------------|
 
Treci dio
 
e|------------------------|--------------------|
B|------------------------|------------------9-|
G|-----10-11-10-8-8-8-8-8-|----10-11-10--8-----|
D|--11--------------------|--11----------------|
A|------------------------|--------------------|
E|------------------------|--------------------|
 
e|------------------------|--------------------|
B|------------------------|--------------------|
G|-----10-11-10-8-8-8-8-8-|----10-11-10--8-----|
D|--11--------------------|--11----------------|
A|------------------------|--------------------|
E|------------------------|--------------------|
 
Legenda
b = bend (nategnuti zicu do drugog broja)
pb = pre-bend (nategnuti zicu prije nego sto je sviras)
r = release (nategnutu zicu pustiti nazad)
h = hammer (prstom lijeve udariti zicu tako da zvuci)
            
Submit corrections

comments powered by Disqus
↑ Back to top | Yu Grupa Tabs for Kosovski Bozuri. Lyrics for acoustic guitar and electric guitar. Tablatures and chords are parodies/interpretations of the original songs. You may use it for private study, scholarship, research or language learning purposes only