» » »

Crni Leptir Tabs (ver.1)

Artists:  A B C D E F G H I J K L M N O P Q R S T U V W X Y Z # 

Crni Leptir Tabs (ver.1)

Yu Grupa
Rating:
5/5 (3 votes)

Hard to play? Try these video lessons and learn fast.
                


Tuning:Intro

e|---3-5-7-7-5-3-5-5-3-2-3-3-0-----|-------------------------------|
B|-5---------------------------3-5-|-5-5/7-7-5-3-5-5/7-7-5-3-5-555-|
G|---------------------------------|-------------------------------|
D|---------------------------------|-------------------------------|
A|---------------------------------|-------------------------------|
E|---------------------------------|-------------------------------|
Part 1                             Part 2

Repeat part 1 and the part 2 play like this…
 
e|------------------------------|
B|-5-5/7-7-5-3-5-5/8-7/8-5-3-5--|
G|------------------------------|
D|------------------------------|
A|------------------------------|
E|------------------------------|

Then text starts.

You can play it using chords..
Like this:Em,Dm,Em
          Em,Dm,Em
          Em,G,Am
          Em,G,Am
          Em,G,Am
          Em,Dm,Em.

After playing this you play this.

e|---3-5-7-7-5-3-5-5-3-2-3-3-0-----|-------------------------------|
B|-5---------------------------3-5-|-5-5/7-7-5-3-5-5/7-7-5-3-5-555-|
G|---------------------------------|-------------------------------|
D|---------------------------------|-------------------------------|
A|---------------------------------|-------------------------------|
E|---------------------------------|-------------------------------|
Part 1                             Part 2

Repeat part 1 and the part 2 play like this…
 
e|------------------------------|
B|-5-5/7-7-5-3-5-5/8-7/8-5-3-5--|
G|------------------------------|
D|------------------------------|
A|------------------------------|
E|------------------------------|

Then again play chords.

Em,Dm,Em
Em,Dm,Em
Em,G,Am
Em,G,Am
Em,G,Am
Em,Dm,Em

In the end play outro

e|---3-5-7-7-5-3-5-5-3-2-3-3-0-----|-------------------------------|
B|-5---------------------------3-5-|-5-5/7-7-5-3-5-5/7-7-5-3-5-555-|
G|---------------------------------|-------------------------------|
D|---------------------------------|-------------------------------|
A|---------------------------------|-------------------------------|
E|---------------------------------|-------------------------------|
Part 1                             Part 2

Repeat part 1 and the part 2 play like this…
 
e|------------------------------|
B|-5-5/7-7-5-3-5-5/8-7/8-5-3-5--|
G|------------------------------|
D|------------------------------|
A|------------------------------|
E|------------------------------|


| /  slide up
| +  harmonic
That’s that..
Enjoy!
            
Hard to play? Try these video lessons and learn fast. | Correct




comments powered by Disqus
↑ Back to top | Tablatures and chords are parodies/interpretations of the original songs. You may use it for private study, scholarship, research or language learning purposes only