>
 >
Rose Gives A Lilly

Rose Gives A Lilly Guitar Tabs

Yuck - Rose Gives A Lilly chords, tabs, tablatures, lyrics

Guitar lessons | Add/correct | Request | Top 50 tabs Artists:  A B C D E F G H I J K L M N O P Q R S T U V W X Y Z 0-9

Rose Gives A Lilly Guitar Tabs – Yuck

CD, Sheet music, Poster

Do you like Rose Gives A Lilly? Share with your friends now
Tabs
-------------------------------------------------------------------------------
-------------------------------------------------------------------------------

Tuning: Standard

The two guitars in the song are both played with light distortion and slight delay,
either using a delay or echo pedal.

Guitar 1: Intro

e|-------0--------------------------------------------------------------------|
B|----------0-----------------------------------------------------------------|
G|----2-----------2-----------------------------------------------------------|
D|--0----------------------------4-4-4-4-4-4-4-4------------------------------|
A|--------------------2--2--2--2----------------------------------------------|
E|----------------------------------------------------------------------------|

e|-------0-------------------------------------------------------------------|
B|----------0----------------------------------------------------------------|
G|----2-----------2----------------------------------------------------------|
D|--0-----------------------------5-5-5-5-5-5-5-5----------------------------|
A|-------------------2--2--2--2----------------------------------------------|
E|---------------------------------------------------------------------------|


Guitar 2: Intro riff - Start on 2nd time around.

e|----------12+---------------------------------------------------------------|
B|--------------12+-----------------------------------------------------------|
G|------14--------------------------------------------------------------------|
D|--12------------------------------------------------------------------------|
A|----------------------------------------------------------------------------|
E|----------------------------------------------------------------------------|


0:40 - 0:58

Guitar 1 w/delay

e|---------------------------------------------------------------------------o|
B|---------------------------------------------------------------------------o|
G|---------------------------------------------------------------------------o|
D|---4--5--4--5--5--5--7--7--7--7--7--7--9--9--------------------------------o|
A|---------------------------------------------------------------------------o|
E|---------------------------------------------------------------------------o|

Guitar 2 - starts at 0:48

e|---------------------------------------------------------------------------o|
B|---------------------------------------------------------------------------o|
G|---9--9--9--11--9--11------------------------------------------------------o|
D|------------------------11b12--11--9--11--11b12--11------------------------o|
A|---------------------------------------------------------------------------o|
E|---------------------------------------------------------------------------o|


1:18-1:37

Guitar 1 (Guitar 2 plays the same riff but on the 12th fret 0=12, 2=14)

e|------------2-----------2----------2---------------------------------------o|
B|------0-----------0----------0--------0----0-------------------------------o|
G|---2-----2-----------2----------2--------2---------------------------------o|
D|---------------------------------------------------------------------------o|
A|---------------------------------------------------------------------------o|
E|---------------------------------------------------------------------------o|

e|-------------------------------------------2---------2-------2-------2-----|
B|--------------------0--------0--------0--------0--------0------0-------0---|
G|--2--2--2--2--2--2-----2--2-----2--2----2----------2-------2------2------2-|
D|---------------------------------------------------------------------------|
A|---------------------------------------------------------------------------|
E|---------------------------------------------------------------------------|


1:38-1:58

Guitar 1 plays the same riff from 0:40-0:58

Guitar 2:

e|--------------------------------------------------------------------------o--|
B|--------------------------------------------------------------------------o--|
G|-------11--12--11--12-----14----14--14--16--14--------------------------o----|
D|---12------------------0------0------------------12----------------------o---|
A|--------------------------------------------------------------------------o--|
E|--------------------------------------------------------------------------o--|


2:17-3:17

Guitar 1 plays variation of Intro Riff and 1:18-137 Riff.

Guitar 2:

The number of times you play each note may not be exactly as I tabbed, just so you know.

e|---------------------------------------------------------------------------|
B|---------------------------------------------------------------------------|
G|---------------------------------------------------------------------------|
D|---------------------------------------------------------------------------|
A|-7-7-7-7-7-7-7-7--5--5-5-5-5-5-5----7-7-7-7-7---7b8--5-5-5-5-5-5-5-5-------|
E|---------------------------------------------------------------------------|

e|---------------------------------------------------------------------------|
B|---------------------------------------------------------------------------|
G|---------------------------------------------------------------------------|
D|---------------------------------------------------------------------------|
A|-7-7-7-7-7-7-7-7--5-5-5-5-5-5--5----4-4-4-4-4--0-0-0-0-0-0-0---------------|
E|---------------------------------------------------------------------------|

2:36  Use pinch harmonics as much as you can.

e|---------------------------------------------------------------------------o|
B|---------------------------------------------------------------------------o|
G|-9-9-9-9-9--7-7-7-7-7-7-7---9-9-9-9-9-9--9b10-7-7-7-7-7--6-6-6-6-----------o|
D|---------------------------------------------------------------------------o|
A|---------------------------------------------------------------------------o|
E|---------------------------------------------------------------------------o|

e|---0-----------------------------------------------------------------------|
B|---0-----------------------------------------------------------------------|
G|---2-----------------------------------------------------------------------|
D|---0-----------------------------------------------------------------------|
A|---0-----------------------------------------------------------------------|
E|---0-----------------------------------------------------------------------|

************************************

| /   slide up
| \   slide down
| h   hammer-on
| p   pull-off
| ~   vibrato
| +   harmonic
| x   Mute note
| b   Bend
| pb  Pre-bend





Comments


Popular Yuck tabs & chords
Holing Out Chords
Milkshake Chords
Shook Down Chords
Sunday Chords
The Wall 1 Chords
Get Away Tabs
Middle Sea Tabs
Suck Tabs
The Wall Tabs
Milkshake Ukulele


Song lyrics



↑ Back to top | Tablatures and chords are parodies/interpretations of the original songs. You may use it for private study, scholarship, research or language learning purposes only
© 2014 AZChords.com Contact us | Privacy policy | DMCA | Add/correct tabs | Request tabs | Top 50 tabs