» » »

Someone Else's Dream Tabs (ver.1)

Artists:  A B C D E F G H I J K L M N O P Q R S T U V W X Y Z # 

Someone Else's Dream Tabs (ver.1)

Youth Group
Rating:
0/5 (0 votes)

Hard to play? Try these video lessons and learn fast.
                One of my favourite songs by Youth Group. Enjoy this tab. I'm pretty sure it's correct.

Intro/Verse/Chorus for guitar 1:

e|----------------------------------------------------------------------|
B|----------------------------------------------------------------------|
G|-99999999-99999999-66666666-44444444----------------------------------|
D|-99999999-99999999-66666666-44444444----------------------------------|
A|-77777777-66666666-44444444-22222222----------------------------------|
E|----------------------------------------------------------------------|

Intro for guitar 2:

e|--------------------------------------------------------------------------------|
B|-9h10-9-12-9h10-9--------9h10-9-12-9h10-9---9h10-9-12-910-9---------------------|
G|------------------9h11-9------------------9-----------------9-11-9-8-6-4-9------|
D|--------------------------------------------------------------------------------|
A|--------------------------------------------------------------------------------|
E|--------------------------------------------------------------------------------|

The second guitar plays on the ninth fret on the g-string, but sometimes alternates to 11.

In the chorus you can sometimes hear something that sounds like this in the background:

e|----------------------------------------------------------------------|
B|----------------------------------------------------------------------|
G|-11-11-11-9-9-9-------------------------------------------------------|
D|----------------9-9---------------------------------------------------|
A|----------------------------------------------------------------------|
E|----------------------------------------------------------------------|

Bridge, first guitar:

e|----------------------------------------------------------------------|
B|----------------------------------------------------------------------|
G|-99999999-99999999-99999999-99999999----------------------------------|
D|-99999999-99999999-99999999-99999999----------------------------------|
A|-77777777-66666666 66666666-66666666----------------------------------|
E|----------------------------------------------------------------------|

Second guitar:

e|------------------------------------------------------|
B|-9h10-9-12-9h10-9---9h10-9-12-9h10-9------------------|
G|------------------9------------------9-11-9-8-6-4-9---|
D|--------------------------------------------------9---|
A|--------------------------------------------------7---|
E|------------------------------------------------------|

Then first guitar plays:

e|---------------------------------------|
B|---------------------------------------|
G|-9~-9~---------------------------------|
D|-9~-9~---------------------------------|  x4
A|-7~-6~---------------------------------|
E|---------------------------------------|

After that, both guitar plays

e|----------------------------------------------------------------------|
B|----------------------------------------------------------------------|
G|-9-99-99-99-66-66-44-44-----------------------------------------------|
D|-9-99-99-99-66-66-44-44-----------------------------------------------|
A|-7-77-66-66-44-44-22-22-----------------------------------------------|
E|----------------------------------------------------------------------|

Ending: Guitar One:

e|----------------------------------------------------------------------|
B|----------------------------------------------------------------------|
G|-99999999-99999999-66666666-44444444----------------------------------|
D|-99999999-99999999-66666666-44444444----------------------------------|
A|-77777777-66666666-44444444-22222222----------------------------------|
E|----------------------------------------------------------------------|

Ending Guitar Two:

e|----------------------------------------------------------------------|
B|----------------------------------------------------------------------|
G|-11-11-11-9-9-9-------------------------------------------------------|
D|----------------9-9---------------------------------------------------|
A|----------------------------------------------------------------------|
E|----------------------------------------------------------------------|

Thank you
            
Hard to play? Try these video lessons and learn fast. | Correct




comments powered by Disqus
↑ Back to top | Tablatures and chords are parodies/interpretations of the original songs. You may use it for private study, scholarship, research or language learning purposes only