>
 >
Shadowland

Shadowland Guitar Tabs

Youth Group - Shadowland chords, tabs, tablatures, lyrics

Guitar lessons | Add/correct | Request | Top 50 tabs Artists:  A B C D E F G H I J K L M N O P Q R S T U V W X Y Z 0-9

Shadowland Guitar Tabs – Youth Group

CD, Sheet music, Poster

Do you like Shadowland? Share with your friends now
Tabs

Couldnít find any tabs for this amazing song so I thought Iíd tab it myself, I think
most of itís right but its hard to tell.If you have any corrections please let me know!

Tuning: Drop D
Intro
(Guitar 1)
e|----------------------------------------------------------------------------|
B|----------------------------------------------------------------------------|
G|--------8-------8--------8--------8--------8--------8-------8------8--------|
D|----6/7-----6/7------6/7------6/7------6/7-------6/7-----6/7-----6/7--------|
A|--0-------0--------0--------0-----------------------------------------------|
E|-------------------------------------0---------0--------0-------0-----------|  X4
(Guitar 2)
e|-------------------------------------------------------------------------|
B|---10---10-12--10-10--10----10-12--10-10---------------------------------|
G|--9---9-9--9-----9---9---9-9--9------9-----------------------------------|
D|-7-----7------------0-----0----------------------------------------------|
A|-------------------------------------------------------------------------|
E|-------------------------------------------------------------------------|

e|-------------------------------------------------------------------------|
B|----10----10--12-10--10-10---10-----10-12-10--10-10----------------------|
G|---9---9-9---9------------9----9---9--9---9-----9------------------------|
D|--7-----7-------------------------0------0-------------------------------|
A|-------------------------------------------------------------------------|
E|-------------------------------------------------------------------------|

Verse Ė (This is the bit Iím not sure about)
(Guitar 1)
e|--0----------------------------------------------------------------------|
B|--0----------------------------------------------------------------------|
G|--6----------------------------keep playing throughout verse-------------|
D|--7---------------------------(any other suggestions, let me know)-------|
A|--0----------------------------------------------------------------------|
E|--x----------------------------------------------------------------------|
(Guitar 2)
e|--0---0--------------------0--0------------------------------------------|
B|--10--10--12-10-9-10-10--10--12-10-9-10----------------------------------|
G|--9---7-------------------9--7-------------------------------------------|
D|--7---9-------------------7--9-------------------------------------------|
A|--0---0-------------------0--0-------------------------------------------|
E|--x---x-------------------x--x-------------------------------------------|

e|--0-0--0-0--0-----------0-0--0-0--0---0-0--0-0--0------------------------|
B|--0-0--0-0--0--12-10-9--0-0--0-0--0---0-0--0-0--0------------------------|
G|--6-6--6-7--9-----------6-6--6-7--9---6-6--6-7--9------------------------|
D|--7-7--7-7--7-----------7-7--7-7--7---7-7--7-7--7------------------------|
A|--0-0--0-0--0-----------0-0--0-0--0---0-0--0-0--0------------------------|
E|--x-x--x-x--x-----------x-x--x-x--x---x-x--x-x--x------------------------|

e|--0-0--0-0--0--------------------------------------------------------------|
B|--0-0--0-0--0--------------------------------------------------------------|
G|--6-6--6-7--9--------------------------------------------------------------|
D|--7-7--7-7--7--------------------------------------------------------------|
A|--0-0--0-0--0--------------------------------------------------------------|
E|--x-x--x-x--x -------------------------------------------------------------|

Bridge

(Guitar 1)
Same as intro

(Guitar 2)
e|---------------------------------------------------------------------|
B|----10---10-12--10-10--10----10-12--9-7------------------------------|
G|--9---9-9--9------9----9---9-9-9-----9-------------------------------|
D|-7-----7--------------0-----0----------------------------------------|
A|---------------------------------------------------------------------|
E|---------------------------------------------------------------------|  X2

Chorus
(Guitars 1&2)
e|--0-0-0-0-0-0-0-0-----0-0-0-0-0-0-0-0-----------------------------|
B|--0-0-0-0-0-0-0-0-----0-0-0-0-0-0-0-0-----------------------------|
G|--6-6-6-6-6-6-6-6-----7-7-7-7-7-7-7-7-----------------------------|
D|--7-7-7-7-7-7-7-7-----7-7-7-7-7-7-7-7-----------------------------|
A|--0-0-0-0-0-0-0-0-----0-0-0-0-0-0-0-0-----------------------------|
E|--x-x-x-x-x-x-x-x-----x-x-x-x-x-x-x-x-----------------------------|  X2

Final Chorus
Guitar 1
e|--0-0-0-0-0-0-0-0-----0-0-0-0-0-0-0-0-----------------------------|
B|--0-0-0-0-0-0-0-0-----0-0-0-0-0-0-0-0-----------------------------|
G|--6-6-6-6-6-6-6-6-----7-7-7-7-7-7-7-7-----------------------------|
D|--7-7-7-7-7-7-7-7-----7-7-7-7-7-7-7-7-----------------------------|
A|--0-0-0-0-0-0-0-0-----0-0-0-0-0-0-0-0-----------------------------|
E|--x-x-x-x-x-x-x-x-----x-x-x-x-x-x-x-x-----------------------------|  X8


(Guitar 2)
e|--0-0-0-0-0-0-0-0-----0-0-0-0-0-0-0-0-----------------------------|
B|--0-0-0-0-0-0-0-0-----0-0-0-0-0-0-0-0-----------------------------|
G|--6-6-6-6-6-6-6-6-----7-7-7-7-7-7-7-7-----------------------------|
D|--7-7-7-7-7-7-7-7-----7-7-7-7-7-7-7-7-----------------------------|
A|--0-0-0-0-0-0-0-0-----0-0-0-0-0-0-0-0-----------------------------|
E|--x-x-x-x-x-x-x-x-----x-x-x-x-x-x-x-x-----------------------------|  X6

e|-------------------------------------------------------------------------|
B|-------------------------------------------------------------------------|
G|--16-14-13-9---16-14-13-9---16-14-18-16-14-13-9--------------------------|
D|-------------------------------------------------------------------------|
A|--14-12-11-7---14-12-11-7---14-12-16-14-12-11-7--------------------------|
E|-------------------------------------------------------------------------|

e|-------------------------------------------------------------------------|
B|-------------------------------------------------------------------------|
G|--14-13-9--14-13-16------------------------------------------------------|
D|-------------------------------------------------------------------------|
A|--12-11-7--12-11-14------------------------------------------------------|
E|-------------------------------------------------------------------------|

Outro
(Guitar 1)
e|-0--0--0--0--0--0--------------------------------------------------------|
B|-0--0--0--0--0--0--------------------------------------------------------|
G|-6--6--6--6--6--6--------------------------------------------------------|
D|-7--7--7--7--7--7--------------------------------------------------------|
A|-0--0--0--0--0--0--------------------------------------------------------|
E|-x--x--x--x--x--x--------------------------------------------------------|

| /  slide up
| \  slide down
============================================================================





Comments


Popular Youth Group tabs & chords
Lillian Lies Chords
See-saw Chords
Sicily Chords
Baby Body Tabs
Forever Young Intro 1 Tabs
Skeleton Jar Tabs
Start Today Tomorrow Tabs
Forever Young Ukulele
See-saw Ukulele
Sicily Ukulele


Song lyrics



↑ Back to top | Tablatures and chords are parodies/interpretations of the original songs. You may use it for private study, scholarship, research or language learning purposes only
© 2014 AZChords.com Contact us | Privacy policy | DMCA | Add/correct tabs | Request tabs | Top 50 tabs