» » »

You Don't Understand Bass tabs (ver.1)

Artists:  A B C D E F G H I J K L M N O P Q R S T U V W X Y Z # 

You Don't Understand Bass tabs (ver.1)

Youth Brigade
Rating:
0/5 (0 votes)

Hard to play? Try these video lessons and learn fast.
                Youth brigada – you don’t understand

Intro:                    seg          0:05 
|----------------------------------------------------------|
|-22222222222222222222222—2-00-2-00-2-00-5454--------------|
|----------------------------------------------------------|
|----------------------------------------------------------|

Verso:              seg        0:09
|----------------------------------------------------------|
|-22222-------------00000--22222-------------00000---------|
|-------33333-00000--------------33333-00000---------------|
|----------------------------------------------------------|

Coro:            seg      0:28          
|----------------------------------------------------------|
|-------------------------------------------00000----------|
|-22-------00-22-------00-22-------00-22222----------------|
|----22-33-------22-33-------22-33-------------------------|

        

            Seg    1:04
|----------------------------------------------------------|
|-22222222222222222222222—2-00-2-00-2-00-5454--------------|
|----------------------------------------------------------|
|----------------------------------------------------------|




             Seg     1:09
|--------------------------------------------------55h7-5---55h7----|
|-22222-------------------22222-------55555-00-5-7--------7---------|
|-------33333-------55555-------33333-------------------------------|
|-------------33333-------------------------------------------------|
            
Hard to play? Try these video lessons and learn fast. | Correct




comments powered by Disqus
↑ Back to top | Tablatures and chords are parodies/interpretations of the original songs. You may use it for private study, scholarship, research or language learning purposes only