» » »

Youth Brigade, You Don't Know Shit Tabs (ver.1)

Artists:  A B C D E F G H I J K L M N O P Q R S T U V W X Y Z # 

You Don't Know Shit Tabs (ver.1)

Youth Brigade Tabs
Rating:
0/5 (0 votes)
You Don't Know Shit lessons Tabs too difficult? Try these video lessons and learn fast
                This is a short but sweet song

This Beginning bit is Palm Muted
--3-x2-----------------------------------------------------------
----------1--x2-----3x2------------------------------------------

Chorus
--10---------3--------5--------7---------------------------------
--10-x3------3-x3-----5--x3----7---x3---------------------------
--8----------1--------3--------5--------------------------------

Verse
------------8-----------------------------------------------------
-10---------8--x6-----7-----------6-------------------------------
-10--x6-----6---------7---x6------6----x6-------------------------
-8--------------------5-----------4-------------------------------

Easy!
            

comments powered by Disqus
↑ Back to top | Youth Brigade Tabs for You Don't Know Shit. Lyrics for acoustic guitar and electric guitar. Tablatures and chords are parodies/interpretations of the original songs. You may use it for private study, scholarship, research or language learning purposes only