>
 >
What Are You Fighting For

What Are You Fighting For Guitar Tabs

Youth Brigade - What Are You Fighting For chords, tabs, tablatures, lyrics

Guitar lessons | Add/correct | Request | Top 50 tabs Artists:  A B C D E F G H I J K L M N O P Q R S T U V W X Y Z 0-9

What Are You Fighting For Guitar Tabs – Youth Brigade

CD, Sheet music, Poster

Do you like What Are You Fighting For? Share with your friends now
Tabs
-------------------------------------------------------------------------------
Sink With California
-------------------------------------------------------------------------------

Tuning: Both guitars standard

Guitar 1:
e|-------------------------------------|
B|-------------------------------------|
G|-4--------7--------------------------|
D|-4--------7--------5--------8--------|
A|-2--------5--------5--------8--------|
E|-------------------3--------6--------| x2

Guitar 1:
e|-------------------------------------|
B|-------------------------------------|
G|-4--------7--------------------------|
D|-4--------7--------5--------8--------|
A|-2--------5--------5--------8--------|
E|-------------------3--------6--------| x2

Guitar 1:
e|-------------------------------------------------|
B|-------------------------------------------------|
G|-4--4--6--6-7--7-7--9--9-------------------------|
D|-4--4--6--6-7--7-7--9--9--5--5--5--5-8--8--8--8--|
A|-2--2--4--4-5--5-5--7--7--5--5--5--5-8--8--8--8--|
E|--------------------------3--3--3--3-6--6--6--6--|

Guitar 1:
e|----------------------------------------------|
B|----------------------------------------------|
G|-4--4--6--6-7--7-7--9--9----------------------|
D|-4--4--6--6-7--7-7--9--9--5--5--5--5-8--------|
A|-2--2--4--4-5--5-5--7--7--5--5--5--5-8--------|
E|--------------------------3--3--3--3-6--------|

Guitar 1:
e|-------------------------------------------------|
B|-------------------------------------------------|
G|-4--4--6--6-7--7-7--9--9-------------------------|
D|-4--4--6--6-7--7-7--9--9--5--5--5--5-8--8--8--8--|
A|-2--2--4--4-5--5-5--7--7--5--5--5--5-8--8--8--8--|
E|--------------------------3--3--3--3-6--6--6--6--| x2

Guitar 1:
e|---------------------------------------------------------------|
B|---------------------------------------------------------------|
G|-9-9-9-9-9-9-9-9-7-7-7-7-7-7-7-7-------------------------------|
D|-9-9-9-9-9-9-9-9-7-7-7-7-7-7-7-7-9--7-7-7-7-7-7-9--7-7-7-7-7-7-|
A|-7-7-7-7-7-7-7-7-5-5-5-5-5-5-5-5-9--7-7-7-7-7-7-9--7-7-7-7-7-7-|
E|---------------------------------7--5-5-5-5-5-5-7--5-5-5-5-5-5-|

Guitar 1:
e|--------------------------------------------------|
B|--------------------------------------------------|
G|-9-9-9-9-9-9-9-9-7-7-7-7-7-7-7-7------------------|
D|-9-9-9-9-9-9-9-9-7-7-7-7-7-7-7-7-9----------------|
A|-7-7-7-7-7-7-7-7-5-5-5-5-5-5-5-5-9----------------|
E|---------------------------------7----------------|

Guitar 1:
e|-------------------------------------------------|
B|-------------------------------------------------|
G|-4--4--6--6-7--7-7--9--9-------------------------|
D|-4--4--6--6-7--7-7--9--9--5--5--5--5-8--8--8--8--|
A|-2--2--4--4-5--5-5--7--7--5--5--5--5-8--8--8--8--|
E|--------------------------3--3--3--3-6--6--6--6--| x4

Guitar 1:
e|---------------------------------------------------------------|
B|---------------------------------------------------------------|
G|-9-9-9-9-9-9-9-9-7-7-7-7-7-7-7-7-------------------------------|
D|-9-9-9-9-9-9-9-9-7-7-7-7-7-7-7-7-9--7-7-7-7-7-7-9--7-7-7-7-7-7-|
A|-7-7-7-7-7-7-7-7-5-5-5-5-5-5-5-5-9--7-7-7-7-7-7-9--7-7-7-7-7-7-|
E|---------------------------------7--5-5-5-5-5-5-7--5-5-5-5-5-5-|

Guitar 1:
e|--------------------------------------------------|
B|--------------------------------------------------|
G|-9-9-9-9-9-9-9-9-7-7-7-7-7-7-7-7------------------|
D|-9-9-9-9-9-9-9-9-7-7-7-7-7-7-7-7-9----------------|
A|-7-7-7-7-7-7-7-7-5-5-5-5-5-5-5-5-9----------------|
E|---------------------------------7----------------|

Guitar 1:
e|-------------------------------------|
B|-------------------------------------|
G|-4--------7--------------------------|
D|-4--------7--------5--------8--------|
A|-2--------5--------5--------8--------|
E|-------------------3--------6--------| x2

Guitar 1:
e|---------------------------------------------------------------------------------------|
B|---------------------------------------------------------------------------------------|
G|-4--------7--------------------------4--------7----------------------------------------|
D|-4--------7--------5--------8--------4--------7--------5--------8--8----8--8--8--8--8--|
A|-2--------5--------5--------8--------2--------5--------5--------8--8----8--8--8--8--8--|
E|-------------------3--------6--------------------------3--------6--6----6--6--6--6--6--|

Guitar 1:
e|-------------------------------------------------|
B|-------------------------------------------------|
G|-4--4--6--6-7--7-7--9--9-------------------------|
D|-4--4--6--6-7--7-7--9--9--5--5--5--5-8--8--8--8--|
A|-2--2--4--4-5--5-5--7--7--5--5--5--5-8--8--8--8--|
E|--------------------------3--3--3--3-6--6--6--6--|

Guitar 1:
e|----------------------------------------------|
B|----------------------------------------------|
G|-4--4--6--6-7--7-7--9--9----------------------|
D|-4--4--6--6-7--7-7--9--9--5--5--5--5-8--------|
A|-2--2--4--4-5--5-5--7--7--5--5--5--5-8--------|
E|--------------------------3--3--3--3-6--------|

Guitar 1:
e|-------------------------------------------------|
B|-------------------------------------------------|
G|-4--4--6--6-7--7-7--9--9-------------------------|
D|-4--4--6--6-7--7-7--9--9--5--5--5--5-8--8--8--8--|
A|-2--2--4--4-5--5-5--7--7--5--5--5--5-8--8--8--8--|
E|--------------------------3--3--3--3-6--6--6--6--| x2

Guitar 1:
e|---------------------------------------------------------------|
B|---------------------------------------------------------------|
G|-9-9-9-9-9-9-9-9-7-7-7-7-7-7-7-7-------------------------------|
D|-9-9-9-9-9-9-9-9-7-7-7-7-7-7-7-7-9--7-7-7-7-7-7-9--7-7-7-7-7-7-|
A|-7-7-7-7-7-7-7-7-5-5-5-5-5-5-5-5-9--7-7-7-7-7-7-9--7-7-7-7-7-7-|
E|---------------------------------7--5-5-5-5-5-5-7--5-5-5-5-5-5-|

Guitar 1:
e|--------------------------------------------------|
B|--------------------------------------------------|
G|-9-9-9-9-9-9-9-9-7-7-7-7-7-7-7-7------------------|
D|-9-9-9-9-9-9-9-9-7-7-7-7-7-7-7-7-9----------------|
A|-7-7-7-7-7-7-7-7-5-5-5-5-5-5-5-5-9----------------|
E|---------------------------------7----------------|

Guitar 1:
e|-----------------------------------------------------------------|
B|-----------------------------------------------------------------|
G|-4-4-4-4-4-4-4-4-7-7-7-7-7-7-7-7-----------------9-9-9-9-9-9-9-9-|
D|-4-4-4-4-4-4-4-4-7-7-7-7-7-7-7-7-5-5-5-5-5-5-5-5-9-9-9-9-9-9-9-9-|
A|-2-2-2-2-2-2-2-2-5-5-5-5-5-5-5-5-5-5-5-5-5-5-5-5-7-7-7-7-7-7-7-7-|
E|---------------------------------3-3-3-3-3-3-3-3-----------------| x2

Guitar 1:
e|-----------------------------------------------------------------|
B|-----------------------------------------------------------------|
G|-4-4-4-4-4-4-4-4-7-7-7-7-7-7-7-7-----------------9-9-9-9-9-9-9-9-|
D|-4-4-4-4-4-4-4-4-7-7-7-7-7-7-7-7-5-5-5-5-5-5-5-5-9-9-9-9-9-9-9-9-|
A|-2-2-2-2-2-2-2-2-5-5-5-5-5-5-5-5-5-5-5-5-5-5-5-5-7-7-7-7-7-7-7-7-|
E|---------------------------------3-3-3-3-3-3-3-3-----------------|
Guitar 2:
e|------------------------------------------------------------------|
B|------------------------------------------------------------------|
G|------------------------------9--7-9--7-9-11-11-11-11-11-11-11-11-|
D|-9--7-9--7-9-12--9--12--9-12--------------------------------------|
A|------------------------------7--5-7--5-7--9--9--9--9--9--9--9--9-|
E|-7--5-7--5-7-10--7--10--7-10--------------------------------------|

Guitar 1:
e|-----------------------------------------------------------------|
B|-----------------------------------------------------------------|
G|-4-4-4-4-4-4-4-4-7-7-7-7-7-7-7-7-----------------9-9-9-9-9-9-9-9-|
D|-4-4-4-4-4-4-4-4-7-7-7-7-7-7-7-7-5-5-5-5-5-5-5-5-9-9-9-9-9-9-9-9-|
A|-2-2-2-2-2-2-2-2-5-5-5-5-5-5-5-5-5-5-5-5-5-5-5-5-7-7-7-7-7-7-7-7-|
E|---------------------------------3-3-3-3-3-3-3-3-----------------|
Guitar 2:
e|-----------------------------------------------------------------------------|
B|-----------------------------------------------------------------------------|
G|-11-11-11-11-11-11-11-11-11-11-11-11-11-11-11-11-11-11-11-11-11-11-11-11-11\-|
D|-----------------------------------------------------------------------------|
A|--9--9--9--9--9--9--9--9--9--9--9--9--9--9--9--9--9--9--9--9--9--9--9--9--9\-|
E|-----------------------------------------------------------------------------|

Guitar 1:
e|-----------------------------------------------------------------|
B|-----------------------------------------------------------------|
G|-4-4-4-4-4-4-4-4-7-7-7-7-7-7-7-7-----------------9-9-9-9-9-9-9-9-|
D|-4-4-4-4-4-4-4-4-7-7-7-7-7-7-7-7-5-5-5-5-5-5-5-5-9-9-9-9-9-9-9-9-|
A|-2-2-2-2-2-2-2-2-5-5-5-5-5-5-5-5-5-5-5-5-5-5-5-5-7-7-7-7-7-7-7-7-|
E|---------------------------------3-3-3-3-3-3-3-3-----------------| x2

Guitar 1:
e|-------------------------------------|
B|-------------------------------------|
G|-4--------7--------------------------|
D|-4--------7--------5--------8--------|
A|-2--------5--------5--------8--------|
E|-------------------3--------6--------| x2

Guitar 1:
e|-------------------------------------|
B|-------------------------------------|
G|-4--------7--------------------------|
D|-4--------7--------5--------8--------|
A|-2--------5--------5--------8--------|
E|-------------------3--------6--------| x2

Guitar 1:
e|-------------------------------------------------|
B|-------------------------------------------------|
G|-4--4--6--6-7--7-7--9--9-------------------------|
D|-4--4--6--6-7--7-7--9--9--5--5--5--5-8--8--8--8--|
A|-2--2--4--4-5--5-5--7--7--5--5--5--5-8--8--8--8--|
E|--------------------------3--3--3--3-6--6--6--6--|

Guitar 1:
e|----------------------------------------------|
B|----------------------------------------------|
G|-4--4--6--6-7--7-7--9--9----------------------|
D|-4--4--6--6-7--7-7--9--9--5--5--5--5-8--------|
A|-2--2--4--4-5--5-5--7--7--5--5--5--5-8--------|
E|--------------------------3--3--3--3-6--------|

How did you like my opera?


| /  slide up
| \  slide down
| h  hammer-on
| p  pull-off
| ~  vibrato
| +  harmonic
| x  Mute note
===============================================================================





Comments


Popular Youth Brigade tabs & chords
It's Not Like That Anymore Bass Tabs
Spies For Life Bass Tabs
Spies For Life 1 Bass Tabs
We Are All The Old Man Bars Bass Tabs
Believe In Something Tabs
Can't Take It With You Tabs
Guns Are For.... Tabs
Sink With Kalifornjia Tabs
Where Are All The Old Man Bars Tabs
You Don't Understand Tabs


Song lyrics



↑ Back to top | Tablatures and chords are parodies/interpretations of the original songs. You may use it for private study, scholarship, research or language learning purposes only
© 2014 AZChords.com Contact us | Privacy policy | DMCA | Add/correct tabs | Request tabs | Top 50 tabs