» » »

Sound And Fury Bass tabs (ver.1)

Artists:  A B C D E F G H I J K L M N O P Q R S T U V W X Y Z # 

Sound And Fury Bass tabs (ver.1)

Youth Brigade
Rating:
0/5 (0 votes)

Hard to play? Try these video lessons and learn fast.
                verse:

 G------------------------------------|
 D--7-7-5-54-0-023-3-3-2-27-10-----7--|
 A-----------------------------8h10---|
 E------------------------------------|

pre-chorus:

 G------------------------------------|
 D------------------------------------|
 A--7-7777775-5555553-335-55----------|
 E--------------------------5-555555--|

 G------------------------------------|
 D--------------------------7-777777--|
 A--7-7777775-5555553-335-55----------|
 E------------------------------------|

chorus:

 G-------------------------------------| (with some
 D-------------------------------------|  fills i can't
 A--5-5555556-666666-------------------|  figure out)
 E------------------8-8888886-666666---|
            
Hard to play? Try these video lessons and learn fast. | Correct




comments powered by Disqus
↑ Back to top | Tablatures and chords are parodies/interpretations of the original songs. You may use it for private study, scholarship, research or language learning purposes only