» » »

Somebodys Gonna Get Thier Head Kicked In Bass tabs (ver.1)

Artists:  A B C D E F G H I J K L M N O P Q R S T U V W X Y Z # 

Somebodys Gonna Get Thier Head Kicked In Bass tabs (ver.1)

Youth Brigade
Rating:
0/5 (0 votes)

Hard to play? Try these video lessons and learn fast.
                
Youth Brigade--somebodys gonna' get thir head kicked in tonight

Verse
G---------------------------------
D---------------------------------
A---------------------------------
E--3--33--0-----3--33--0----------  Repeats 4x

G-------------------------------
D-------------------------------
A--3--33--0-----3--33--0--------
E------------------------------- Repeats 2x, then go back to the Verse

Verse
G---------------------------------
D---------------------------------
A---------------------------------
E--3--33--0-----3--33--0----------  Repeats 2x

("somebodys gonna' get thier head kicked in tonight")
G-------------------------
D-------------------------
A--3--3333-----5----------
E-------------------------

Chorus,  ("rip up the halls, tear down the walls")
G--------------------------------------
D--------------------------------------
A--3-3333----------------3-3333--------
E---------------3-3333-----------------
            
Hard to play? Try these video lessons and learn fast. | Correct




comments powered by Disqus
↑ Back to top | Tablatures and chords are parodies/interpretations of the original songs. You may use it for private study, scholarship, research or language learning purposes only