» » »

Can't Take It With You Tabs (ver.1)

Artists:  A B C D E F G H I J K L M N O P Q R S T U V W X Y Z # 

Can't Take It With You Tabs (ver.1)

Youth Brigade
Rating:
5/5 (1 vote)

Hard to play? Try these video lessons and learn fast.
                -------------------------------------------------------------------------------
Come Again
-------------------------------------------------------------------------------

Tuning: The guitar is in standard tuning (EADGBe)

e|-----------------------------------------------------------|
B|-----------------------------------------------------------|
G|-------------------------------------------------7----5----|
D|-7-X-X-X-X-X-X-X-7-X-X-X-X-X-X-X-7-X-X-X-X-X-X-X-7----5----|
A|-7-X-X-X-X-X-X-X-7-X-X-X-X-X-X-X-7-X-X-X-X-X-X-X-5----3----|
E|-5-X-X-X-X-X-X-X-5-X-X-X-X-X-X-X-5-X-X-X-X-X-X-X-----------| x6

e|-----------------------------------------------------------------|
B|-----------------------------------------------------------------|
G|-----------------7-7-7-7-7-7-7-7-----------------9-9-9-9-9-9-9-9-|
D|-5-5-5-5-5-5-5-5-7-7-7-7-7-7-7-7-7-7-7-7-7-7-7-7-9-9-9-9-9-9-9-9-|
A|-5-5-5-5-5-5-5-5-5-5-5-5-5-5-5-5-7-7-7-7-7-7-7-7-7-7-7-7-7-7-7-7-|
E|-3-3-3-3-3-3-3-3-----------------5-5-5-5-5-5-5-5-----------------|

e|---------------------------------------------------------|
B|---------------------------------------------------------|
G|-----------------7-7-7-7-7-7-7-7-9-9-9-9-9-9-9-9-9-------|
D|-5-5-5-5-5-5-5-5-7-7-7-7-7-7-7-7-9-9-9-9-9-9-9-9-9-------|
A|-5-5-5-5-5-5-5-5-5-5-5-5-5-5-5-5-7-7-7-7-7-7-7-7-7-------|
E|-3-3-3-3-3-3-3-3-----------------------------------------|

e|-----------------------------------------------------------|
B|-----------------------------------------------------------|
G|-------------------------------------------------7----5----|
D|-7-X-X-X-X-X-X-X-7-X-X-X-X-X-X-X-7-X-X-X-X-X-X-X-7----5----|
A|-7-X-X-X-X-X-X-X-7-X-X-X-X-X-X-X-7-X-X-X-X-X-X-X-5----3----|
E|-5-X-X-X-X-X-X-X-5-X-X-X-X-X-X-X-5-X-X-X-X-X-X-X-----------| x6

e|-----------------------------------------------------------------|
B|-----------------------------------------------------------------|
G|-----------------7-7-7-7-7-7-7-7-----------------9-9-9-9-9-9-9-9-|
D|-5-5-5-5-5-5-5-5-7-7-7-7-7-7-7-7-7-7-7-7-7-7-7-7-9-9-9-9-9-9-9-9-|
A|-5-5-5-5-5-5-5-5-5-5-5-5-5-5-5-5-7-7-7-7-7-7-7-7-7-7-7-7-7-7-7-7-|
E|-3-3-3-3-3-3-3-3-----------------5-5-5-5-5-5-5-5-----------------|

e|-----------------------------------------------------------------|
B|-----------------------------------------------------------------|
G|-----------------7-7-7-7-7-7-7-7-9-9-9-9-9-9-9-9-9-9-9-9-9-9-9-9-|
D|-5-5-5-5-5-5-5-5-7-7-7-7-7-7-7-7-9-9-9-9-9-9-9-9-9-9-9-9-9-9-9-9-|
A|-5-5-5-5-5-5-5-5-5-5-5-5-5-5-5-5-7-7-7-7-7-7-7-7-7-7-7-7-7-7-7-7-|
E|-3-3-3-3-3-3-3-3-------------------------------------------------|

e|---------------------------------------------------------|
B|---------------------------------------------------------|
G|-9--9--9--9--7--7--7--7----------------------------------|
D|-9--9--9--9--7--7--7--7--7-7-7-7-7-7-7-7-7-7-7-7-7-7-7-7-|
A|-7--7--7--7--5--5--5--5--7-7-7-7-7-7-7-7-7-7-7-7-7-7-7-7-|
E|-------------------------5-5-5-5-5-5-5-5-5-5-5-5-5-5-5-5-| x3

e|-------------------|  
B|-------------------|  
G|-9--7--5--7--5-----|  
D|-9--7--5--7--5--5--|
A|-7--5--3--5--3--5--|
E|----------------3--|

e|--------------------------------------|
B|--------------------------------------|
G|----------------------------7----5----|
D|-7--------7--------7--------7----5----|
A|-7--------7--------7--------5----3----|
E|-5--------5--------5------------------| x2

e|-----------------------------------------------------------|
B|-----------------------------------------------------------|
G|-------------------------------------------------7----5----|
D|-7-X-X-X-X-X-X-X-7-X-X-X-X-X-X-X-7-X-X-X-X-X-X-X-7----5----|
A|-7-X-X-X-X-X-X-X-7-X-X-X-X-X-X-X-7-X-X-X-X-X-X-X-5----3----|
E|-5-X-X-X-X-X-X-X-5-X-X-X-X-X-X-X-5-X-X-X-X-X-X-X-----------| x4

e|-----------------------------------------------------------------|
B|-----------------------------------------------------------------|
G|-----------------7-7-7-7-7-7-7-7-----------------9-9-9-9-9-9-9-9-|
D|-5-5-5-5-5-5-5-5-7-7-7-7-7-7-7-7-7-7-7-7-7-7-7-7-9-9-9-9-9-9-9-9-|
A|-5-5-5-5-5-5-5-5-5-5-5-5-5-5-5-5-7-7-7-7-7-7-7-7-7-7-7-7-7-7-7-7-|
E|-3-3-3-3-3-3-3-3-----------------5-5-5-5-5-5-5-5-----------------|

e|-----------------------------------------------------------------|
B|-----------------------------------------------------------------|
G|-----------------7-7-7-7-7-7-7-7-9-9-9-9-9-9-9-9-9-9-9-9-9-9-9-9-|
D|-5-5-5-5-5-5-5-5-7-7-7-7-7-7-7-7-9-9-9-9-9-9-9-9-9-9-9-9-9-9-9-9-|
A|-5-5-5-5-5-5-5-5-5-5-5-5-5-5-5-5-7-7-7-7-7-7-7-7-7-7-7-7-7-7-7-7-|
E|-3-3-3-3-3-3-3-3-------------------------------------------------|

e|--------------------------------------|
B|--------------------------------------|
G|----------------------------7----5----|
D|-7--------7--------7--------7----5----|
A|-7--------7--------7--------5----3----|
E|-5--------5--------5------------------|


| /  slide up
| \  slide down
| h  hammer-on
| p  pull-off
| ~  vibrato
| +  harmonic
| x  Mute note
===============================================================================
            
Hard to play? Try these video lessons and learn fast. | Correct




comments powered by Disqus
↑ Back to top | Tablatures and chords are parodies/interpretations of the original songs. You may use it for private study, scholarship, research or language learning purposes only