» » »

Youth Brigade, All Style, No Substance Bass tabs (ver.1)

Artists:  A B C D E F G H I J K L M N O P Q R S T U V W X Y Z # 

All Style, No Substance Bass tabs (ver.1)

Youth Brigade Tabs
Rating:
0/5 (0 votes)
All Style, No Substance lessons Tabs too difficult? Try these video lessons and learn fast
                


x = flagolette-stuff

Riff 1:
G -11--
D -9---
A -----
E -----

Riff 2:
G -------9--11--|
D -9--x--9--11--|
A -9--x--7--9---|
E -7--x---------|

Riff 3:
G ------9--|
D --11--9--|
A --11--7--|
E --9------|

The above x4, then:
G --9--11--|
D --9--11--|
A --7--9---|
E ---------|

Riff 4:
G --------7--9--|
D --9--4--7--9--|
A --9--4--5--7--|
E --7--2--------|

Figure out the song structure through listening to the CD.
            

comments powered by Disqus
↑ Back to top | Youth Brigade Bass for All Style, No Substance. Lyrics for acoustic guitar and electric guitar. Tablatures and chords are parodies/interpretations of the original songs. You may use it for private study, scholarship, research or language learning purposes only