» » »

You Did It! Bass tabs (ver.1)

Artists:  A B C D E F G H I J K L M N O P Q R S T U V W X Y Z # 

You Did It! Bass tabs (ver.1)

You Say Party We Say Die
Rating:
0/5 (0 votes)

Hard to play? Try these video lessons and learn fast.
                You Say Party! We Say Die!
Hit the Floor!

Intro & Verse
G|------------------------------------------------|
D|------------------------------------------------|
A|------------------------------------------------|
E|-5-5--5-5--5--5-5-4-4-2-2--2-2--2--2-2-4-4-5-5--|

Chorus
G|----------------------------------------------------|
D|---------------------------2-2-2-2-2-2-2-2-2-2-2-2--|
A|-0-0-0-0-0-0--4-4-4-4-4-4---------------------------|
E|----------------------------------------------------|

-------------------------------------------------------------|
-------------------------------------------------------------|
-5-5-5-5-5-5-5-5--4-4-4-4-4-4-4-4--2-2-2-2-2-2-2-2-2-2-2-2---|
-------------------------------------------------------------|

Bridge
G|---------------------|
D|---------------------|
A|---------------------|
E|-5-5-5--4--2-2-2-2---|

There you have it! Have fun with it!
            
Hard to play? Try these video lessons and learn fast. | Correct




comments powered by Disqus
↑ Back to top | Tablatures and chords are parodies/interpretations of the original songs. You may use it for private study, scholarship, research or language learning purposes only