>
 >
Xxxx Loyalty

Xxxx Loyalty Guitar Tabs

You Say Party We Say Die - Xxxx Loyalty chords, tabs, tablatures, lyrics

Guitar lessons | Add/correct | Request | Top 50 tabs Artists:  A B C D E F G H I J K L M N O P Q R S T U V W X Y Z 0-9

Xxxx Loyalty Guitar Tabs – You Say Party We Say Die

CD, Sheet music, Poster

Do you like Xxxx Loyalty? Share with your friends now
Tabs
XXXX Loyalty - You Say Party! We Say Die!
Tuning: Standard

e|-------------------------|
B|---------------9-9-------|
G|--------12-------12--12--|
D|--10-10----10------------| x17
A|-------------------------|
E|-------------------------|

|-----------------------------------------------------------------|
|-----------------------------------------------------------------|
|--5-5-5-5-5-5-5-5-5-5-5-5-7-7-7-7-7-7-7-7-8-8-8-8-10-10-10-10----|
|--5-5-5-5-5-5-5-5-5-5-5-5-7-7-7-7-7-7-7-7-8-8-8-8-10-10-10-10----| x4
|--3-3-3-3-3-3-3-3-3-3-3-3-5-5-5-5-5-5-5-5-6-6-6-6-8--8--8--8-----|
|-----------------------------------------------------------------|

|-----------------------------------------------------------------|
|-----------------------------------------------------------------|
|-----------------------------------------------------------------|
|--10--10--10-10-10-10---10-10-10-10--8h10--10--10--10-10-10\8/13-|
|-----------------------------------------------------------------|
|-----------------------------------------------------------------|

---------------------|
---------------------|
---------------------|
-13-13-13-12--12-12--|
---------------------|
---------------------|

|-------------------------|
|---------------9-9-------|
|--------12-------12--12--|
|--10-10----10------------| x8
|-------------------------|
|-------------------------|

|--0-0------0-0--0-0--0-0--------------------------|
|--1-1------1-1--1-1--1-1--------------------------|
|--0-0------0-0--0-0--0-0----------12-12---(12)----|
|--2-2------2-2--2-2--2-2------/10-----------------| x2
|--3-3------3-3--3-3--3-3--------------------------|
|--------------------------------------------------|

|-------------------------|
|---------------9-9-------|
|--------12-------12--12--|
|--10-10----10------------| x9
|-------------------------|
|-------------------------|

|---------------------------------|
|---------------------------12----|
|--------12-------12--9--9--------|
|--10-10----10-10-----------------| x2
|---------------------------------|
|---------------------------------|

|-------------------------|
|---------------9-9-------|
|--------12-------12--12--|
|--10-10----10------------| x9
|-------------------------|
|-------------------------|

|---------------------------------------------------------------|
|---------------------------------------------------------------|
|--5-5-5-5-5-5-5-5-5-5-5-5-7-7-7-7-7-7-7-7-8-8-8-8-10-10-10-10--|
|--5-5-5-5-5-5-5-5-5-5-5-5-7-7-7-7-7-7-7-7-8-8-8-8-10-10-10-10--| x3
|--3-3-3-3-3-3-3-3-3-3-3-3-5-5-5-5-5-5-5-5-6-6-6-6-8--8--8--8---|
|---------------------------------------------------------------|

---------------------------------------------------------------|
---------------------------------------------------------------|
--5-5-5-5-5-5-5-5-5-5-5-5-7-7-7-7-7-7-7-7-8-8-8-8-10-10-10-10--|
---------------------------------------------------------------|
---------------------------------------------------------------|
---------------------------------------------------------------|

--------------------------------------------------------------------|
--------------------------------------------------------------------|
--5-5-5-5-5-5-5-5-5-5-5-5-7-7-7-7-7-7-7-7-8-8-8-8-10-10-10-10---5---|
--5-5-5-5-5-5-5-5-5-5-5-5-7-7-7-7-7-7-7-7-8-8-8-8-10-10-10-10---5---|
--3-3-3-3-3-3-3-3-3-3-3-3-5-5-5-5-5-5-5-5-6-6-6-6-8--8--8--8----3---|
--------------------------------------------------------------------|

That's about it, have fun with it





Comments


Popular You Say Party We Say Die tabs & chords
Monster Bass Tabs
Moon Bass Tabs
Quiet World Bass Tabs
The Gap Bass Tabs
Apocolypse Meow Tabs
Five Year Plan Tabs
Giant Hands Tabs
Jazz Crabs Tabs
Like I Give A Care Tabs
Monster Tabs


Song lyrics



↑ Back to top | Tablatures and chords are parodies/interpretations of the original songs. You may use it for private study, scholarship, research or language learning purposes only
© 2014 AZChords.com Contact us | Privacy policy | DMCA | Add/correct tabs | Request tabs | Top 50 tabs