» » »

The Gap Bass tabs (ver.1)

Artists:  A B C D E F G H I J K L M N O P Q R S T U V W X Y Z # 

The Gap Bass tabs (ver.1)

You Say Party We Say Die
Rating:
0/5 (0 votes)

Tabs too difficult? Try these video lessons and learn fast.
                You Say Party! We Say Die!
Hit the Floor!

Tuning: Standard

Intro & Verse
G|------------------------------------------------------------|
D|------------------------------------------------------------|
A|---------------------3-3-3-3-3-3-3p2h3----------------------|
E|--5-5-5-5-5-5-5p4h5---------------------1-1-1-1-1-1-1p0h1---|

----------------------|
----------------------|
----------------------|
-1-1-1-1-1-1-1p0h1----|

Chorus
G|-----------------------------------------------------------------------|
D|-----------------------------------------------------------------------|
A|--0-0-0-0-0-0-0-0--3-3-3-3-3-3-3-3--2-2-2-2-2-2-2-2--3-3-3-3-2-2-2-2---|
E|-----------------------------------------------------------------------|

Bass and Guitar part
G|--------------|
D|--------------|
A|--------------|
E|--5--5--5--5--|

(guitar plays)

Bass
G|--------------|
D|--------------|
A|--------------|
E|--5--5--5--5--|

(guitar plays)

Bass
G|--------------|
D|--------------|
A|--------------|
E|--1--1--1--1--|

(guitar plays)

Bass
G|--------------|
D|--------------|
A|--------------|
E|--1--1--1--1--|

(guitar plays)

Play this when it says "cut out the institution"
G|------------------------------|
D|------------------------------|
A|------------------------------|
E|--1-1-1-1-1-1-1-1-1-1-1-1-1---|

Thats it, Have fun with it...
            
Tabs too difficult? Try these video lessons and learn fast.




comments powered by Disqus
↑ Back to top | Tablatures and chords are parodies/interpretations of the original songs. You may use it for private study, scholarship, research or language learning purposes only