» » »

You Say Party We Say Die, Opportunity Tabs (ver.1)

Artists:  A B C D E F G H I J K L M N O P Q R S T U V W X Y Z # 

Opportunity Tabs (ver.1)

You Say Party We Say Die Tabs
Rating:
4/5 (2 votes)
Opportunity lessons Tabs too difficult? Try these video lessons and learn fast
                You Say Party! We Say Die!
Lose All Time



Chorus
If you saw them, you wouldn't know what I mean...
E-----------------------------------------------|
B----------------------9--10-10--10-10-10-10----|
G--12-12--12-12-12-12---------------------------| (x4)
D-----------------------------------------------|
A-----------------------------------------------|
E-----------------------------------------------|

Verse
E-----------------|
B------9--10------|
G--12-------------| (x2)
D-----------------|
A-----------------|
E-----------------|

-Chorus-(x4)

-Verse-(x6)

-Chorus-(x8)


Bridge
E----------------------------------------------|
B--17--------------------------17--------------|
G--------14-14-14-14--14-14----------14-14-----| (x2)
D----------------------------------------------|
A----------------------------------------------|
E----------------------------------------------|

Solo
E------------------------------------------------------|
B--17-17-17-17-17-17-17-17-17-17--15--15-15------------|
G------------------------------------------------------| (x8)
D------------------------------------------------------|
A------------------------------------------------------|
E------------------------------------------------------|


E-----------------------------------------------------------------------|
B-17-17-17-17-15-15-15-15-13-12-12-12-12-12-12-10-10-10-10-10-10-10-10--|
G----------------------------------------------------------------------|(x2)
D-----------------------------------------------------------------------|
A-----------------------------------------------------------------------|
E-----------------------------------------------------------------------|


E--------------------|
B--17--15--13--12----|
G--------------------| (x12)
D--------------------|
A--------------------|
E--------------------|

-Chorus- (x8)


Ending one
E--------------------------------------------------|
B-17-17-17-15-15-15-13-12-12-12-12-10-10-10-10-----|
G----------------------------------------------9---|
D--------------------------------------------------|
A--------------------------------------------------|
E--------------------------------------------------|
            

comments powered by Disqus
↑ Back to top | You Say Party We Say Die Tabs for Opportunity. Lyrics for acoustic guitar and electric guitar. Tablatures and chords are parodies/interpretations of the original songs. You may use it for private study, scholarship, research or language learning purposes only