» » »

Five Year Plan Tabs (ver.1)

Artists:  A B C D E F G H I J K L M N O P Q R S T U V W X Y Z # 

Five Year Plan Tabs (ver.1)

You Say Party We Say Die
Rating:
1/5 (1 vote)

Hard to play? Try these video lessons and learn fast.
                You Say Party! We Say Die!
Lose All Time

Intro
e|--------------------------------------------------|
B|--------------------------------------------------|
G|-9--9--9-9-9-9--4-4-4-4-5-5-5-5-------------------|
D|-9--9--9-9-9-9--4-4-4-4-5-5-5-5--5-5-5-5-5-5-5-5--|
A|-7--7--7-7-7-7--2-2-2-2-3-3-3-3--5-5-5-5-5-5-5-5--|
E|---------------------------------3-3-3-3-3-3-3-3--|

Intro End
e|-----------------------|
B|-----------------------|
G|-----------------------|
D|-7--9--10--7--9--10-9--|
A|-5--7--8---5--7--8--7--|
E|-----------------------|
            
Hard to play? Try these video lessons and learn fast. | Correct




comments powered by Disqus
↑ Back to top | Tablatures and chords are parodies/interpretations of the original songs. You may use it for private study, scholarship, research or language learning purposes only