» » »

These Lights Tabs (ver.1)

Artists:  A B C D E F G H I J K L M N O P Q R S T U V W X Y Z # 

These Lights Tabs (ver.1)

Your Demise
Rating:
0/5 (0 votes)

Tabs too difficult? Try these video lessons and learn fast.
                Just the power chords, no pm/strumming. Tuned half-step down. I've seen the big guy in 
Your Demise play it like this once. Good luck!

######## INTRO
eb|---------------------------------------------------------------|
Bb|---------------------------------------------------------------|
Gb|---------------------------------------------------------------|
Db|---77-11-7-2~---77-11-7-2~-------------------------------------|
Ab|---77-11-7-2~---77-11-7-2~-------------------------------------|
Eb|---55-9--5-0~---55-9--5-0~-------------------------------------|

eb|---------------------------------------------------------------|
Bb|---------------------------------------------------------------|
Gb|-----------9999------7777-----4--------------------------------|
Db|---77-11-7-9999-5555-7777---5---5------------------------------|
Ab|---77-11-7-7777-5555-5555-3------------------------------------|
Eb|---55-9--5------3333-------------------------------------------|

######## VERSE
eb|---------------------------------------------------------------|
Bb|---------------------------------------------------------------|
Gb|---9999------7777------9999------7777-----4--------------------|
Db|---9999-5555-7777-7777-9999-5555-7777---5---5------------------|
Ab|---7777-5555-5555-7777-7777-5555-5555-3------------------------|
Eb|--------3333------5555------3333-------------------------------|

eb|---------------------------------------------------------------|
Bb|---------------------------------------------------------------|
Gb|---9999------7777----------------------------------------------|
Db|---9999-5555-7777-7777-7777------------------------------------|
Ab|---7777-5555-5555-7777-7777------------------------------------|
Eb|--------3333------5555-5555------------------------------------|

######## PRE-CHORUS
eb|---------------------------------------------------------------|
Bb|---------------------------------------------------------------|
Gb|-------------6666-4444-----------6666-4~44---------------------|
Db|---4444-7777-6666-4444-4444-7777-6666-4~44---------------------|
Ab|---4444-7777-4444-2222-4444-7777-4444-2~22---------------------|
Eb|---2222-5555-----------2222-5555-------------------------------|

######## CHORUS
eb|---------------------------------------------------------------|
Bb|---------------------------------------------------------------|
Gb|--------6666----------------6666-------------------------------|
Db|---2222-6666-6666-7777-2222-6666-6666-7777---------------------|
Ab|---2222-4444-6666-7777-2222-4444-6666-7777---------------------|
Eb|---0000------4444-5555-0000------4444-5555---------------------|

######## VERSE 2
eb|---------------------------------------------------------------|
Bb|---------------------------------------------------------------|
Gb|---9999------7777-----4---9999------7777-----------------------|
Db|---9999-5555-7777---5---5-9999-5555-7777-7777------------------|
Ab|---7777-5555-5555-3-------7777-5555-5555-7777------------------|
Eb|--------3333-------------------3333------5555------------------|

eb|---------------------------------------------------------------|
Bb|---------------------------------------------------------------|
Gb|---9999------7777-----4---9999------7777-----------------------|
Db|---9999-5555-7777---5---5-9999-5555-7777-7777-7777-------------|
Ab|---7777-5555-5555-3-------7777-5555-5555-7777-7777-------------|
Eb|--------3333-------------------3333------5555-5555-------------|

######## PRE-CHORUS
eb|---------------------------------------------------------------|
Bb|---------------------------------------------------------------|
Gb|-------------6666-4444-----------6666-4~44---------------------|
Db|---4444-7777-6666-4444-4444-7777-6666-4~44---------------------|
Ab|---4444-7777-4444-2222-4444-7777-4444-2~22---------------------|
Eb|---2222-5555-----------2222-5555-------------------------------|

######## CHORUS
eb|---------------------------------------------------------------|
Bb|---------------------------------------------------------------|
Gb|--------6666----------------6666-------------------------------|
Db|---2222-6666-6666-7777-2222-6666-6666-7777---------------------|
Ab|---2222-4444-6666-7777-2222-4444-6666-7777---------------------|
Eb|---0000------4444-5555-0000------4444-5555---------------------|

eb|---------------------------------------------------------------|
Bb|---------------------------------------------------------------|
Gb|--------6666----------------6666-------------------------------|
Db|---2222-6666-6666-7777-2222-6666-6666-7777-7777-7777-7777------|
Ab|---2222-4444-6666-7777-2222-4444-6666-7777-7777-7777-7777------|
Eb|---0000------4444-5555-0000------4444-5555-5555-5555-5555------|

######## ENDING
eb|---------------------------------------------------------------|
Bb|---------------------------------------------------------------|
Gb|-------------9999-8888-----------9999-8888---------------------|
Db|---6666-7777-9999-9999-6666-7777-9999-9999---------------------|
Ab|---6666-7777-7777-6666-6666-7777-7777-6666---------------------|
Eb|---4444-5555-0000------4444-5555-0000--------------------------|

eb|---------------------------------------------------------------|
Bb|---------------------------------------------------------------|
Gb|-------------9999-8888-----------9999-4444-4444----------------|
Db|---6666-7777-9999-9999-6666-7777-9999-4444-4444-2~-------------|
Ab|---6666-7777-7777-6666-6666-7777-7777-2222-2222-2~-------------|
Eb|---4444-5555-0000------4444-5555-0000-----------0~-------------|
            
Tabs too difficult? Try these video lessons and learn fast.




comments powered by Disqus
↑ Back to top | Tablatures and chords are parodies/interpretations of the original songs. You may use it for private study, scholarship, research or language learning purposes only