» » »

Your Demise, The Kids We Used To Be.. Bass tabs (ver.1)

Artists:  A B C D E F G H I J K L M N O P Q R S T U V W X Y Z # 

The Kids We Used To Be.. Bass tabs (ver.1)

Your Demise Tabs
Rating:
0/5 (0 votes)
The Kids We Used To Be.. lessons Tabs too difficult? Try these video lessons and learn fast
                This is my first ever tab. It might not be 100% right. Also my tuner is broken so this 
is standard tuning however it might sound good in drop C like Jimmy from YD usually plays it.
E, A, D, G

Intro
G------------|
D------------|
A-----4--6---| X 2
E--1---------|

Verse 1
G-------------------------------------------|
D-------------------------------------------|
A-----------44444444-------------66666666---| X2
E--1111111-------------44444444-------------|

Pre Chorus
G-----------|
D-----------|
A-----------|
E--1221-----|

Chorus
G----------------------|
D----------------------|
A--4444666688888888----|
E----------------------|

G----------------------|
D----------------------|
A--44446666------------|
E-----------44444444---|

G-----------------------|
D-----------------------|
A---4444666688884444----|
E-----------------------|

G-------------------------------------------|
D-------------------------------------------|
A--44446666---------------------------------|
E------------11-111-111-111-111-111-111111--|

Post Chorus
G-----------------|
D-----------------|
A-----4-----6-----|
E--1-----4--------|

Verse 2
G-----------------------------------------|
D-----------------------------------------|
A-----------44444444------------66666666--| X2
E--1111111------------44444444------------|

Chorus 2
G----------------------|
D----------------------|
A--4444666688888888----|
E----------------------|

G----------------------|
D----------------------|
A--44446666------------|
E-----------44444444---|

G-----------------------|
D-----------------------|
A---4444666688884444----|
E-----------------------|

G-------------------------------------------|
D-------------------------------------------|
A--44446666---------------------------------|
E------------11-111-111-111-111-111-111111--|

Bridge
G----------------------------------------|
D----------------------------------------|
A--------33---44-------------------------|
E---11-------------4444444433333333------|

G----------------------------------------|
D----------------------------------------|
A---------333---444----------------------|
E---111---------------4444444433333333---|

G-----------------------------------------|
D-----------------------------------------|
A------------3333333344444444-------------|
E--11111111--------------------44443333---|

G-------------------------------------|
D-------------------------------------|
A------------3333333344444444---------|
E--11111111--------------------4--3---|

Chorus 3
G--------------|
D--------------|
A---4---6---8--|
E--------------|

G--------------|
D-----------6--|
A---4---6------|
E--------------|

G-----------------|
D-----------------|
A--4---6---8---4--|
E-----------------|

G----------------|
D----------------|
A--4---6---------|
E----------4-----|

G----------------------|
D----------------------|
A---4444666688888888---|
E----------------------|

G--------------------------|
D--------------------------|
A---44446666---------------|
E----------------44444444--|

G---------------------|
D---------------------|
A---4444666688884444--|
E---------------------|

G----------------------------------------------------------------------------|
D----------------------------------------------------------------------------|
A---44446666-----------------------------------------------------------------|
E-------------11-111-111-111-111-111-111111----11-111-111-111-111-111-111111-|
            

comments powered by Disqus
↑ Back to top | Your Demise Bass for The Kids We Used To Be... Lyrics for acoustic guitar and electric guitar. Tablatures and chords are parodies/interpretations of the original songs. You may use it for private study, scholarship, research or language learning purposes only