» » »

Your Demise, Sahc Tabs (ver.1)

Artists:  A B C D E F G H I J K L M N O P Q R S T U V W X Y Z # 

Sahc Tabs (ver.1)

Your Demise Tabs
 Rating:
4/5 (4 votes)
Sahc lessons Tabs too difficult? Try these video lessons and learn fast
                Not sure about the strumming listen to it...

|--------------------------------------------------------------------|
|--------------------------------------------------------------------|
|--------------------------------------------------------------------|
|--44-44444---3-6----44-44444---4-3----------------------------------|
|--66-66666---2-4----66-66666---2-1----------------------------------|
|--------------------------------------------------------------------|



|--------------------------------------------------------------------|
|--------------------------------------------------------------------|
|--------------------------------------------------------------------|
|--44-44444---3-6----44-44444---4-3----------------------------------|
|--66-66666---2-4----66-66666---2-1----------------------------------|
|--------------------------------------------------------------------|



|--------------------------------------------------------------------|
|--------------------------------------------------------------------|
|--------------------------------------------------------------------|
|--44------4--444-66666-----44-----0-444-33333-----------------------|
|--66--00--6--222-44444-----66--00-0-222-11111-----------------------|
|------00-----------------------00-0---------------------------------|
       PP                       PP


|--------------------------------------------------------------------|
|--------------------------------------------------------------------|
|--------------------------------------------------------------------|
|--44------4--444-66666-----44-----0-444-33333-----------------------|
|--66--00--6--222-44444-----66--00-0-222-11111-----------------------|
|------00-----------------------00-0---------------------------------|
       PP                       PP

|--------------------------------------------------------------------|
|--------------------------------------------------------------------|
|--------------------------------------------------------------------|
|--44------4--444-66666-----44-----0-----0------0-----0--------------|
|--66--00--6--222-44444-----66--00-0-000-0--000-0-000-0--------------|
|------00-----------------------00-0-000-0--000-0-000-0--------------|
       PP                       PP   PPP    PPP   PPP 

|--------------------------------------------------------------------|
|--------------------------------------------------------------------|
|--------------------------------------------------------------------|
|--44-44444---3-6----44-44444---4-3----------------------------------|
|--66-66666---2-4----66-66666---2-1----------------------------------|
|--------------------------------------------------------------------|
            
Submit corrections

comments powered by Disqus
↑ Back to top | Your Demise Tabs for Sahc. Lyrics for acoustic guitar and electric guitar. Tablatures and chords are parodies/interpretations of the original songs. You may use it for private study, scholarship, research or language learning purposes only