» » »

Your Demise, Miles Away Bass tabs (ver.1)

Artists:  A B C D E F G H I J K L M N O P Q R S T U V W X Y Z # 

Miles Away Bass tabs (ver.1)

Your Demise Tabs
Rating:
0/5 (0 votes)
Miles Away lessons Tabs too difficult? Try these video lessons and learn fast
                Tuning: Drop C# (Tune to Drop D then tune it another half step down)
Try not to rely on the song too much for the rhythm but I've tried the best I can 
to show the rhythm!
The times for the parts are rough aswell, timings may differ, they're just the 
timings I see on my iTunes for when the part comes up!

INTRO
[0:04]
F#|-------------------------------------------------------------------------|
C#|-------------------------------------------------------------------------|
G#|-------------------------------------------------------------------------|
C#|2~-----------------------2~---------2-2~-------------2-2~----------------|
   (drum rolls in the background)   

VERSE
[0:24]
F#|-------------------------------------------------------------------------|
C#|-------------------------------------------------------------------------|
G#|-----------------------------3----5--------------------------------3----5|
C#|2-2--2-2-2--2-5-5--5-7-7--7------------2-2--2-2-2--2-5-5--5-7-7--7-------|

[0:34]
F#|-------------------------------------------------------------------------|
C#|-------------------------------------------------------------------------|
G#|-----------------------------3----5--------------------------------3----5|
C#|2-2--2-2-2--2-5-5--5-7-7--7------------2-2--2-2-2--2-5-5--5-7-7--7-------|

INTERLUDE
[0:44]
F#|-------------------------------------------------------------------|
C#|-------------------------------------------------------------------|
G#|-------------------------------------------------------------------|
C#|2~~~~10~~~~5~~~~-2~~~~10~~~~5~~~~-2~~~~10~~~~5~~~~-2~~~~10~~~~5~~~~|

PRE-CHORUS
[1:09]
F#|------------------------------------------------------------------------|
C#|------------------------------------------------------------------------|
G#|------------------------------------------------------------------------|
C#|2-2-2-2-2-2-2-2-2-2-2-2-2-2-2-2-5-5-5-5-5-5-5-10-10-10-10-10-10-10-10-10|

[1:16]
F#|------------------------------------------------------------------------|
C#|------------------------------------------------------------------------|
G#|------------------------------------------------------------------------|
C#|2-2-2-2-2-2-2-2-2-2-2-2-2-2-2-2-5-5-5-5-5-5-5-10-10-10-10-10-10-10-10-10|

[1:22]
F#|------------------------------------------------------------------------|
C#|------------------------------------------------------------------------|
G#|------------------------------------------------------------------------|
C#|2-2-2-2-2-2-2-2-2-2-2-2-2-2-2-2-5-5-5-5-5-5-5-10-10-10-10-10-10-10-10-10|

[1:29]
F#|------------------------------------------------------------------------|
C#|------------------------------------------------------------------------|
G#|------------------------------------------------------------------------|
C#|2-2-2-2-2-2-2-2-2-2-2-2-2-2-2-2-5-5-5-5-5-5-5-10---10---10-10-10-10-----|

CHORUS
[1:35]
F#|------------------------------------------------------------------------|
C#|------------------------------------------------------------------------|
G#|------------------------------------------------------------------------|
C#|2-2-2-2-2-2-2-2-2-2-2-2-2-2-2-2-10-10-10-10-10-10-10-10-5-5-5-5-5-0-3-5-|

[1:41]
F#|------------------------------------------------------------------------|
C#|------------------------------------------------------------------------|
G#|------------------------------------------------------------------------|
C#|2-2-2-2-2-2-2-2-2-2-2-2-2-2-2-2-10-10-10-10-10-10-10-10-5-5-5-5-5-0-3-5-|

[1:47]
F#|------------------------------------------------------------------------|
C#|------------------------------------------------------------------------|
G#|------------------------------------------------------------------------|
C#|2-2-2-2-2-2-2-2-2-2-2-2-2-2-2-2-10-10-10-10-10-10-10-10-5-5-5-5-5-0-3-5-|

[1:53]
F#|------------------------------------------------------------------------|
C#|------------------------------------------------------------------------|
G#|------------------------------------------------------------------------|
C#|2-2-2-2-2-2-2-2-2-2-2-2-2-2-2-2-10-10-10-10-10-10-10-10-5-5-5-5-5-0-3-5-|

POST CHORUS
[2:00]
F#|---------------------|
C#|---------------------|
G#|---------------------|
C#|2-2~~~~~~~~~~~~2~~~~~|
      (drum rolls)

VERSE
[2:06]
F#|-------------------------------------------------------------------------|
C#|-------------------------------------------------------------------------|
G#|-----------------------------3----5--------------------------------3----5|
C#|2-2--2-2-2--2-5-5--5-7-7--7------------2-2--2-2-2--2-5-5--5-7-7--7-------|

[2:16]
F#|-------------------------------------------------------------------------|
C#|-------------------------------------------------------------------------|
G#|-----------------------------3----5--------------------------------3----5|
C#|2-2--2-2-2--2-5-5--5-7-7--7------------2-2--2-2-2--2-5-5--5-7-7--7-------|

[2:25]
F#|-------------------------------------------------------------------------|
C#|-------------------------------------------------------------------------|
G#|-----------------------------3----5--------------------------------------|
C#|2-2--2-2-2--2-5-5--5-7-7--7------------2-2--2-2-2--2-5-5--5-7-7--7-------|

CHORUS
[2:35]
F#|------------------------------------------------------------------------|
C#|------------------------------------------------------------------------|
G#|------------------------------------------------------------------------|
C#|2-2-2-2-2-2-2-2-2-2-2-2-2-2-2-2-10-10-10-10-10-10-10-10-5-5-5-5-5-0-3-5-|

[2:41]
F#|------------------------------------------------------------------------|
C#|------------------------------------------------------------------------|
G#|------------------------------------------------------------------------|
C#|2-2-2-2-2-2-2-2-2-2-2-2-2-2-2-2-10-10-10-10-10-10-10-10-5-5-5-5-5-0-3-5-|

[2:48]
F#|------------------------------------------------------------------------|
C#|------------------------------------------------------------------------|
G#|------------------------------------------------------------------------|
C#|2-2-2-2-2-2-2-2-2-2-2-2-2-2-2-2-10-10-10-10-10-10-10-10-5-5-5-5-5-0-3-5-|

[2:54]
F#|------------------------------------------------------------------------|
C#|------------------------------------------------------------------------|
G#|------------------------------------------------------------------------|
C#|2-2-2-2-2-2-2-2-2-2-2-2-2-2-2-2-10-10-10-10-10-10-10-10-5-5-5-5-5-0-3-5-|

[3:00]
F#|------------------------------------------------------------------------|
C#|------------------------------------------------------------------------|
G#|------------------------------------------------------------------------|
C#|2-2-2-2-2-2-2-2-2-2-2-2-2-2-2-2-10-10-10-10-10-10-10-10-5-5-5-5-5-0-3-5-|

[3:08]
F#|------------------------------------------------------------------------|
C#|------------------------------------------------------------------------|
G#|------------------------------------------------------------------------|
C#|2-2-2-2-2-2-2-2-2-2-2-2-2-2-2-2-10-10-10-10-10-10-10-10-5-5-5-5-5-0-3-5-|

END
[3:14]
F#|----------------------------------------------------------------------|
C#|----------------------------------------------------------------------|
G#|----------------------------------------------------------------------|
C#|2-2~~~~~~~~~~~~~~~~~~~~~~~~~~~~~~~~~~~~~~~~~~~~~~~~~~~~~~~~~~~~~~~~~~~|
      
That's it! 
            
Submit corrections

comments powered by Disqus
↑ Back to top | Your Demise Bass for Miles Away. Lyrics for acoustic guitar and electric guitar. Tablatures and chords are parodies/interpretations of the original songs. You may use it for private study, scholarship, research or language learning purposes only