» » »

Life Of Luxury Tabs (ver.1)

Artists:  A B C D E F G H I J K L M N O P Q R S T U V W X Y Z # 

Life Of Luxury Tabs (ver.1)

Your Demise
Rating:
5/5 (2 votes)

Hard to play? Try these video lessons and learn fast.
                Life of Luxury (feat. Mike Duce of Lower Than Atlantis)
Your Demise
The Kids We Used To Be... (2010)

My first ever tab :P
Be gental ;)

Intro

D#||-------------------------------------------------------|
A#||-------------------------------------------------------|
F#||-------------------------------------------------------|
C#||-12~-----12~---10~------10~---7~-----7~---8~----7~---8-|   X3
G#||--8~------8~----8~-------8~---5~-----5~---5~----5~---5-|
C#||--8~------8~----8~-------8~---5~-----5~---5~----5~---5-|

On the 4th time around, play this:

D#||-----------------------------|--------|
A#||-----------------------------|--------|
F#||-----------------------------|--------|
C#||-12~-----12~---10~------10~--|--5-----|
G#||--8~------8~----8~-------8~--|--5-x8--|
C#||--8~------8~----8~-------8~--|--5-----|
                                   P.M

Chorus (I kinda skipped tabbing the strumming pattern, it's fairly easy just listen to 
the song to figure it out)

D#||-------------------------------------------------------|
A#||-------------------------------------------------------|
F#||------------------------5~7---7-7-7--------------------|
C#||--8~7~5~--5-5-5-------3~5~7---7-7-7-x6-----------------|   X2
G#||--8~7~5~--5-5-5-x6----3~3~5---5-5-5--------------------|
C#||--8~7~5~--5-5-5-------3--------------------------------|

Verse

D#||----------------------------------------------------------------|
A#||----------------------------------------------------------------|
F#||----------------------------------------------------------------|
C#||-12------10------12------10-------7-------8-------7-------8-----|   X2
G#||--8-x8----8-x8----8-x8----8-x8----5-x8----5-x8----5-x8----5-x8--|
C#||--8-------8-------8-------8-------5-------5-------5-------5-----|

Chorus again, but instead of playing this the 2nd time through:

D#||-------------------------------------------------------|
A#||-------------------------------------------------------|
F#||------------------------5~7---7-7-7--------------------|
C#||--8~7~5~--5-5-5-------3~5~7---7-7-7-x6-----------------|
G#||--8~7~5~--5-5-5-x6----3~3~5---5-5-5--------------------|
C#||--8~7~5~--5-5-5-------3--------------------------------|

Play this instead:

D#||-------------------------------------------------------|
A#||-------------------------------------------------------|
F#||------------------------5~7----------------------------|
C#||--8~7~5~--5-5-5-------3~5~7---0------------------------|
G#||--8~7~5~--5-5-5-x6----3~3~5---0-x10--------------------|
C#||--8~7~5~--5-5-5-------3-------0------------------------|
                                 P.M

Bridge (Part 1)

D#||---------------------------------------------------|
A#||---------------------------------------------------|
F#||---------------------------------------------------|
C#||-0~~-------8--8-7------0~~-------8--8-7---0--------|
G#||-0~~-------8--8-7--x2--0~~-------8--8-7---0-x10----|
C#||-0~~-------8--8-7------0~~-------8--8-7---0--------|
                                             P.M

Bridge (Part 2)

D#||--------------------|----|----------|
A#||--------------------|----|----------|
F#||--------------------|----|----------|
C#||--8--8-7----0-------|----|--8--8-7--|
G#||--8--8-7----0-x10---|-x4-|--8--8-7--|
C#||--8--8-7----0-------|----|--8--8-7--|
               P.M

Bridge (Part 3)

D#||--------------------|
A#||--------------------|
F#||--------------------|
C#||-0~~~~~-----0-------|
G#||-0~~~~~-----0-x10---|
C#||-0~~~~~-----0-------|
               P.M

Bridge (Part 4)

D#||-------------------------|
A#||-------------------------|
F#||-------------------------|
C#||--8--8-7----0----3----5--|  x8
G#||--8--8-7----0-x4-3-x4-5--|
C#||--8--8-7----0----3----5--|
               P.M

Intro again

D#||-------------------------------------------------------|
A#||-------------------------------------------------------|
F#||-------------------------------------------------------|
C#||-12~-----12~---10~------10~---7~-----7~---8~----7~---8-|
G#||--8~------8~----8~-------8~---5~-----5~---5~----5~---5-|
C#||--8~------8~----8~-------8~---5~-----5~---5~----5~---5-|

On the 2ND time around, play this:

D#||-----------------------------|--------|
A#||-----------------------------|--------|
F#||-----------------------------|--------|
C#||-12~-----12~---10~------10~--|--5-----|
G#||--8~------8~----8~-------8~--|--5-x8--|
C#||--8~------8~----8~-------8~--|--5-----|
                                   P.M

Chorus

D#||-------------------------------------------------------|
A#||-------------------------------------------------------|
F#||------------------------5~7---7-7-7--------------------|
C#||--8~7~5~--5-5-5-------3~5~7---7-7-7-x6-----------------|   X2
G#||--8~7~5~--5-5-5-x6----3~3~5---5-5-5--------------------|
C#||--8~7~5~--5-5-5-------3--------------------------------|

Chorus/Outro (Strumming pattern is different, not 100% sure about this part either.)

D#||--------------------------------------|
A#||--------------------------------------|
F#||-----------------------7----7---------|
C#||--8~7~5~--5--------3~5~7----7-x10-----|   X2
G#||--8~7~5~--5-x10----3~5~5----5---------|
C#||--8~7~5~--5--------3~5~---------------|
             P.M

Outro

D#||----------------------------|
A#||----------------------------|
F#||------------------7~--------|
C#||--8~7~5~------3~5~7~--------|
G#||--8~7~5~------3~5~5~--------|
C#||--8~7~5~------3~5~----------|

Hope you enjoyed it. :P
            
Hard to play? Try these video lessons and learn fast. | Correct




comments powered by Disqus
↑ Back to top | Tablatures and chords are parodies/interpretations of the original songs. You may use it for private study, scholarship, research or language learning purposes only