» » »

Yourcodenameis Milo, Trapeze Artist Tabs (ver.1)

Artists:  A B C D E F G H I J K L M N O P Q R S T U V W X Y Z # 

Trapeze Artist Tabs (ver.1)

Yourcodenameis Milo Tabs
 Rating:
4.3/5 (6 votes)
Trapeze Artist lessons Tabs too difficult? Try these video lessons and learn fast
1
                ----------------------------------------------------------------------------
                        Trapeze Artist - Yourcodenameis:Milo
----------------------------------------------------------------------------


This is my first tab so it's bound to be sh*t but meh

Time Signature : 5/4 [I think]
Drop D tuning

e|----------------------------------|    }
b|----------------------------------|    }
g|----------------------------------|    } x4
d|----------------------------------|    }
a|--1h2--1h4--1h2--1--x--1h2p1------|    }
d|----------------------------------|    }

Verse- No guitar

Now The Pendulum Won't Swing...

e|----------------------------------|    }
b|----------------------------------|    }
g|----------------------------------|    } x4
d|----------------------------------|    }
a|--1h2--1h4--1h2--1--x--1h2p1------|    }
d|----------------------------------|    }

2nd Verse

Man Made Guillotine...

e|-----------------------------------|    }
b|-----------------------------------|    }
g|-----------------------------------|    } x8
d|-----------------------------------|    }
a|--1h2--1h4--1h2--1--x--1h2p1-------|    }
d|-----------------------------------|    }

Breakdown

e|-----------------------------------|-------------------------------|  }
b|-----------------------------------|-------------------------------|  }
g|-----------------------------------|-------------------------------|  } x2
d|--1-1---1-1---1-1---1-1------------|--1-----1-1---1-1---1-1--------|  }
a|--1-1---1-1---1-1---1-1------------|--1-----1-1---1-1---1-1--------|  }
d|--1-1---1-1---1-1---1-1------------|--1-----1-1---1-1---1-1--------|  }


Very Slight Change


e|-----------------------------------|-------------------------------|  }
b|-----------------------------------|-------------------------------|  }
g|-----------------------------------|-------------------------------|  } x2
d|--1-1---1-1---1-1---1-1------------|--1-1---1-1---1-1---1-1--------|  }
a|--1-1---1-1---1-1---1-1------------|--1-1---1-1---1-1---1-1--------|  }
d|--1-1---1-1---1-1---1-1------------|--1-1---1-1---1-1---1-1--------|  }

Bridge

e|-----------------------------------|  }
b|-----------------------------------|  }
g|--111111--101010--888---666---444--|  } x4
d|--x-x-x---x-x-x---xxx---xxx---xxx--|  }
a|--9-9-9---8-8-8---666---444---222--|  }
d|-----------------------------------|  }

e|-----------------------------------|  }
b|-----------------------------------|  }
g|--111111--101010--888---666---444--|  } x8
d|--111111--101010--888---666---444--|  }
a|--9-9-9---8-8-8---666---444---222--|  }
d|-----------------------------------|  }

e|-----------------------------------|    }
b|-----------------------------------|    }
g|-----------------------------------|    } x6
d|-----------------------------------|    }
a|--1h2--1h4--1h2--1--x--1h2p1-------|    }
d|-----------------------------------|    }

On the 5th bar second guitar comes in with this while first guitar continues with above 
for two more bars then first guitar riff changes --- first guitar in brackets ---

e|--12"-|-13"-|-14"-----------------------|-16"--------------------||
b|------|-----|------------------------R--|------------------------||
g|------|-----|------------------------E--|------------------------||
d|------|-----|------------------------S--|------------------------||
a|------|-----|-(1h2--1h4--1h2--1--x)--T--|-(1h2--1h4--1h2--1--x)--||
d|------|-----|---------------------------|------------------------||


| "  tremolo pick note (as fast as you can repeatedly basically)
| /  slide up
| \  slide down
| h  hammer-on
| p  pull-off
| ~  vibrato
| +  harmonic
| x  Mute note
============================================================================
            
Submit corrections

comments powered by Disqus
↑ Back to top | Yourcodenameis Milo Tabs for Trapeze Artist. Lyrics for acoustic guitar and electric guitar. 1 Tablatures and chords are parodies/interpretations of the original songs. You may use it for private study, scholarship, research or language learning purposes only