>
 >
Translate

Translate Bass Tabs

Yourcodenameis Milo - Translate chords, tabs, tablatures, lyrics

Guitar lessons | Add/correct | Request | Top 50 tabs Artists:  A B C D E F G H I J K L M N O P Q R S T U V W X Y Z 0-9

Translate Bass Tabs – Yourcodenameis Milo

CD, Sheet music, Poster

Do you like Translate? Share with your friends now
Bass TabsTabs
-------------------------------------------------------------------------------
			     Translate - YOURCODENAMEIS:MILO
-------------------------------------------------------------------------------


Tuning: Drop C#

First Verse (0:35) x2 - this comes in after the intro when the singer starts singing 
I think it might supposed to be the same melody as the singer but it is hard to hear. This 
as close as I can tell although if you just meander around those notes it sounds fine.
F#|--------------------------------------------------------|
C#|-12-12--10-12-13-12-12--10-12-13-12-12--10-12-13-7------|
G#|--------------------------------------------------------|
C#|--------------------------------------------------------|

First half chorus (0:49) x2
F#|---------------------------------|
C#|-------x-x--x-x--------x-x--x-x--|
G#|-6--5--x-x--x-x--6--5--x-x--x-x--|
C#|-------x-x--x-x--------x-x--x-x--|

Second Verse (0:58) x12 - he plays this riff to start with and it sounds like he does 
the way through, though after the 8th time I think in recording it may have been doubled 
and he plays the bit in the first verse too.
F#|-----------------------|
C#|-----------------------|
G#|-----------------------|
C#|-2-2--2-0-2-0--0-2-0---|

First half chorus (1:32) x4

Second half riff (2:00) x3
F#|-------------------------------------|
C#|-------------------------------------|
G#|-------------------------------------|
C#|-0--0-2-3-0---0-2-3-5--0---0-5-3-0---|

Bridge + Heavy part (2:15) - I'm not sure about this
F#|-------------------------------------------------|
C#|-------------------------------------------------| x2
G#|-------------------------------------------------|
C#|-7-7-7-7-7-7-7-0-3-3-3-3-3-3-3-0-5-5-5-5-5-5-5-5-|

F#|-------------------------------------------------|
C#|-------------------------------------------------| x2
G#|-------------------------------------------------|
C#|-6-6-6-6-6-6-6-5-6-6-6-6-6-6-6-5-6-6-6-6-6-6-6-5-|

F#|-------------------------------------------------|
C#|-------------------------------------------------| x2
G#|-------------------------------------------------|
C#|-6---6---6---6-5-6---6---6---6-5-6---6---6---6-5-|

Bridge (2:47)
F#|---------------------|
C#|---------------------| x4
G#|---------------------|
C#|-0------5-0--------7-|

Second half riff (3:10) x8

| /  slide up
| \  slide down
| h  hammer-on
| p  pull-off
| ~  vibrato
| +  harmonic
| x  Mute note
===============================================================================





Comments


Popular Yourcodenameis Milo tabs & chords
17 Bass Tabs
All Roads To Fault Bass Tabs
Screaming Ground Bass Tabs
All Roads To Fault Tabs
Pacific Theatre Tabs
Translate Tabs
Trapeze Artist Tabs


Song lyrics



↑ Back to top | Tablatures and chords are parodies/interpretations of the original songs. You may use it for private study, scholarship, research or language learning purposes only
© 2014 AZChords.com Contact us | Privacy policy | DMCA | Add/correct tabs | Request tabs | Top 50 tabs