» » »

Screaming Ground Bass tabs (ver.1)

Artists:  A B C D E F G H I J K L M N O P Q R S T U V W X Y Z # 

Screaming Ground Bass tabs (ver.1)

Yourcodenameis Milo
Rating:
0/5 (0 votes)

Tabs too difficult? Try these video lessons and learn fast.
                -------------------------------------------------------------------------------
			     Screaming Ground - YOURCODENAMEIS:MILO
-------------------------------------------------------------------------------


Tuning: Standard

This is my first complex song tabbed completely from scratch so I apoligse if there are 
little mistakes.
This song has some odd and jumpy beats and time signatures which you'll have to listen 
and also a couple of minor variations not worth figuring or tabbing out.

Intro/Chorus riff
G|-----------------------------------------------------------------|
D|-----------------------------------------------------------------|
A|-3-3-3-3-3-3-3-3-3-3-3-3-5-5-5-3-1-1-1-1-1-1-1-1-1-1-1-1-5-5-5-3-|
E|-----------------------------------------------------------------|

G|-------------------------------------------------------------------------|
D|-------------------------------------------------------------------------|
A|-6-6-6-6-6-6-6-6-6-6-6-6-6-6-6-6-8-8-8-8-8-8-8-8-10-10-10-10-12-12-12-12-|
E|-------------------------------------------------------------------------|

Verse
G|-------------------------87-|
D|----------------------------|
A|-3---3----3--3---3---3------|
E|----------------------------|
Play the above part until it changes (when the singing and drums come in).

G|------------------------------------------------------------------------------------------------------|
D|------------------------------------------------------------------------------------------------------|
A|-3---3----3--3---3---3----1---1----1--1---1----1----3---3----3--3---3---3----3---3----3--3---3---3----|
E|------------------------------------------------------------------------------------------------------|

Bridge (Guitars playing chorus)
G|-----------------------------------------------------------------|
D|-----------------------------------------------------------------| x2
A|-3-3-3-3-3-3-3-3-3-3-3-3-3-3-3-3-3-3-3-3-3-3-3-3-3-3-3-3-3-3-3-3-|
E|-----------------------------------------------------------------|

G|-----------------------------------------------------------------|
D|-----------------------------------------------------------------| x2
A|-1-1-1-1-1-1-1-1-1-1-1-1-1-1-1-1-1-1-1-1-1-1-1-1-1-1-1-1-1-1-1-1-|
E|-----------------------------------------------------------------|

Verse 2 (I think there is another part to this with the same rhythm where it moves down 
the E string but I'm not sure of the notes)
G|-----------------------87-----------------------87-----------------------87-----------------------87-|
D|-----------------------------------------------------------------------------------------------------|
A|-3---3----3--3---3---3----1---1----1--1---1---1----3---3----3--3---3---3----3---3----3--3---3---3----|
E|-----------------------------------------------------------------------------------------------------|

Chorus
G|-----------------------------------------------------------------|
D|-----------------------------------------------------------------|
A|-3-3-3-3-3-3-3-3-3-3-3-3-5-5-5-3-1-1-1-1-1-1-1-1-1-1-1-1-5-5-5-3-|
E|-----------------------------------------------------------------|

G|-------------------------------------------------------------------------|
D|-------------------------------------------------------------------------|
A|-6-6-6-6-6-6-6-6-6-6-6-6-6-6-6-6-8-8-8-8-8-8-8-8-10-10-10-10-12-12-12-12-|
E|-------------------------------------------------------------------------|

Middle 8 (About half-way through, there is a little stop in the beat; I didn't tab it as 
seemed a waste of time when it is quite obvious.)
G|-----------------------------------------------------------------|
D|-----------------------------------------------------------------|
A|-3-3-5-5-5-5-5-5-3-3-5-5-5-5-5-5-5-5-3-3-3-3-3-3-5-5-3-3-3-3-3-3-|
E|-----------------------------------------------------------------|

G|-----------------------------------------------------------------|
D|-----------------------------------------------------------------|
A|-3-3-6-6-6-6-6-6-5-5-6-6-6-6-6-6-6-6-8-8-8-8-8-8-6-6-8-8-8-8-8-8-|
E|-----------------------------------------------------------------|

Outro
G|--------------------------------------------------------------------------------|
D|--------------------------------------------------------------------------------|
A|-3-3-5-5--3-3--5-5--3-3--5-5--3-3--5-5--3-3--6-6--5-5--6-6--5-5--6-6--6-6--8-8--|
E|--------------------------------------------------------------------------------|


| /  slide up
| \  slide down
| h  hammer-on
| p  pull-off
| ~  vibrato
| +  harmonic
| x  Mute note
===============================================================================
            
Tabs too difficult? Try these video lessons and learn fast.


comments powered by Disqus
↑ Back to top | Tablatures and chords are parodies/interpretations of the original songs. You may use it for private study, scholarship, research or language learning purposes only